Song name
# A B C D E F G H I J K L M N O P Q R S T U V W X Y Z

Seraphs Coal - One More Try tab

One more Try - Seraphs Coal
tabber - shonofear


Intro 1 - Gtr 1
-|-------------------------------------------------------|
-|-------------------------------------------------------|
-|-----4-------6---8---9-----------------9-11--13-11--9--|
-|-2---4->-6---------------7----9------------------------|
-|-2->-2---6->-4---6---7---7->--9->------7--9--11--9--7--|
-|-0-------4---------------5----7------------------------|

Gtr 2
-|------------------------------------------------|
-|------------------------------------------------|
-|------4-------13-11--13---14-14--13-11--9-------|
-|--2---4->-6-------------------------------ring--|
-|--2->-2---6->-11--9--11---12-12--11--9--7-------|
-|--0-------4-------------------------------------|

Intro 2 - Gtr 1
-|--------------------------------|
-|--------------------------------|
-|------4-------6--8--9-----------|
-|--2---4->-6------------7---9----|
-|--2->-2---6->-4--6--7--7->-9->--|
-|--0-------4------------5---7----|

Gtr 2
-|-------------------------------------|
-|-------------------------------------|
-|--13-13-13--11--8--9-9----6---6---8--|
-|--------------------------->--->--->-|
-|--11-11-11---9--6--7-7----4---4---6--|
-|-------------------------------------|

Verse - Gtr 1
-|-----------------------------------------------------------------------------|
-|-----------------------------------------------------------------------------|
-|-----------------------------------------------------------------------------|
-|--xx-9-xx-9-xx-9-xx-9--xx-8-xx-8-xx-8-xx-8--xx-9-xx-9-xx-9-xx-9--------------|
-|--xx-7-xx-7-xx-7-xx-7--xx-6-xx-6-xx-6-xx-6--xx-7-xx-7-xx-7-xx-7--66-77-66-7--|
-|-----------------------------------------------------------------------------|
cont'd
-|---------------------------------------------------------------------|
-|---------------------------------------------------------------------|
-|---------------------------------------------------------------------|
-|--xx-9-xx-9-xx-9-xx-9--xx-8-xx-8-xx-8-xx-8--x-6-x-6-x-6-x-6-x---7----|
-|--xx-7-xx-7-xx-7-xx-7--xx-6-xx-6-xx-6-xx-6--x-4-x-4-x-4-x-4-x---7->--|
-|----------------------------------------------------------------5----|

Gtr 2
-|------------------------------------------|
-|------------------------------------------|
-|--9---11------9---11------9--11---13--14--|
-|------------------------------------------|
-|--7----9------7----9------7---9---11--12--|
-|------------------------------------------|

Riff - Both Gtr's
-|-----------------------------------------------|
-|-----------------------------------------------|
-|--4-4---2----4-4---2----------4-4---2------4---|
-|--4-4---2----4-4---2--2-2-----4-4---2------4->-|
-|--2-2---0----2-2---0--2-2-----2-2---0------2---|
-|----------------------0-0----------------------|

Chorus - Both Gtr's
-|----------------------------------------------------------------------------------|
-|----------------------------------------------------------------------------------|
-|------4-------6--8--9-----------9--11---13--11---9-------4-------6--8--9----------|
-|--2---4->-6-------------7---9------------------------2---4---6------------7---9---|
-|--2->-2---6->-4--6--7---7->-9->-7---9---11---9---7---2->-2->-6->-4--6--7--7->-9->-|
-|--0-------4-------------5---7------------------------0-------4------------5---7---|

Verse
Riff

Chorus - (Gtr 1 does same chorus as before before, while Gtr 2 does diff)
Gtr 2
-|----------------------------------------------------------------------------------|
-|----------------------------------------------------------------------------------|
-|------4-------6-8-9----------9-11--13-11--9------4-------13-11--13---14-14--13-11-|
-|--2---4->-6----------7---9-------------------2---4->-6----------------------------|
-|--2->-2---6->-4-6-7--7->-9->-7--9--11--9--7--2->-2---6->-11--9--11---12-12--11--9-|
-|--0-------4----------5---7-------------------0-------4----------------------------|

Bit before bridge
Gtr 1
-|------------------|
-|------------------|
-|--9-99-9-99-9-99--|
-|--9-99-9-99-9-99--|
-|--7-77-7-77-7-77--|
-|--*----*----*-----|

Bridge 1 - Gtr 1 (on an off p.m)
-|--------------------------------------|
-|--------------------------------------|
-|------6-------9-------6-------9-------|
-|--9---6->-7---9->-9---6->-7---9-ring--|
-|--9->-4---7->-7---9->-4---7->-7-------|
-|--7-------5-------7-------5-----------|

Gtr 2
-|-----------------------------------------------------|
-|----------------------------------7-9-7---9-7--9/12--|
-|--------6-------9-6---6----9-8--9-------9------------|
-|--9-9-9---9-9-------9---9----------------------------|
-|-----------------------------------------------------|
-|-----------------------------------------------------|

Gtr 1
-|------------------------------------------------|
-|------------------------------------------------|
-|-----------------------------------9---9--9--9--|
-|-----------------------------------9------------|
-|--6-xx-6-xx--7-xx-7-xx--9-xx-9-xx--7---7--7--7--|
-|--4-xx-4-xx--5-xx-5-xx--7-xx-7-xx---------------|

Bridge 2 - Gtr 2
-|----------------|-------------------------------|
-|----------------|-------------------------------|
-|----------------|------------------9---14-13-9--|
-|-----------x16--|------------------9------------|
-|--6h7-7---------|------------------7---12-11-7--|
-|----------------|-------------------------------|

Bridge 3 - Both Gtr's
-|---------------------------------------------------------|--------|
-|---------------------------------------------------------|--------|
-|--------------13--11---9---9/11---6---4---2--------------|--------|
-|--6---7---9-----------------/-----6->-4->-2->-----ring---|---9----|
-|--6->-7->-9->-11---9---7---7/-9---4---2---0--------------|---9->--|
-|--4---5---7----------------------------------------------|---7----|

-|---------------------------------------------------------|--------|
-|---------------------------------------------------------|--------|
-|--------------13--11---9---9/11---6---4---9--8--4--------|--------|
-|--6---7---9-----------------/-----6->-4->---------ring---|---9----|
-|--6->-7->-9->-11---9---7---7/-9---4---2---7--6--2--------|---9->--|
-|--4---5---7----------------------------------------------|---7----|

Outro - Gtr 1
-|---------------------------------------------------------|
-|---------------------------------------------------------|
-|------4--------6--8--9-----------------------------------|
-|--2---4->-6--------------7----9------2-----2-----2-------|
-|--2->-2---6->--4--6--7---7->--9->----2-----2-----2-ring--|
-|--0-------4--------------5----7------0-----0-----0-------|

Gtr 2
-|---------------------------------------------------------------------|
-|---------------------------------------------------------------------|
-|------4-------13-11--13--------------14----13----9-----\-----4-------|
-|--2---4->-6--------------7----9------------------------\-------ring--|
-|--2->-2---6->-11--9--11--7->--9->----12----11----7-----\-----2-------|
-|--0-------4--------------5----7--------------------------------------|
Tap to rate this tab
 
# A B C D E F G H I J K L M N O P Q R S T U V W X Y Z