Song name
# A B C D E F G H I J K L M N O P Q R S T U V W X Y Z

Seraphs Coal - No Hero tab

No hero - Seraphs Coal
tabber - shonofear


*  = palm mute,    x\ = pickscrape
>  = strum x4,     >> = strum x8

Intro
  Gtr 1
-|-----------------------------------|
-|--------------------------55-------|
-|-44-66-7-66-44-6--44-66-7----77-6--| x1
-|-----------------------------------|
-|-----------------------------------|
-|-------------------Gtr-2--x\\------|

Verse
  Both Gtrís
-|-------------------|
-|-------------------|
-|-4-----------------| x4
-|-4->-4----5----7---|
-|-2---4->--5->--7->-|
-|-----2----3----5---|

Chorus
  Both Gtrís
-|---------------------------------------------------------------------|
-|---------------------------------------------------------------------|
-|----------7-6--4------------------------------------77-6-4-----------|
-|-5---7----7-6--4->--5---7---4----4-4-4-4---5---7----77-6-4->-5----7--|
-|-5->-7->--5-4--2----5->-7->-4->--4-4-4-4---5->-7->--55-4-2---5->--7--|
-|-3---5--------------3---5---2----2-2-2-2---3---5-------------3----5--|

Intro (Gtr 2 does verse chords x2)
 Gtr 1
-|------------------------------------------------------------------------|
-|----------------------------------------------------------------55------|
-|-44-66-7--66-44-6---44-66-7777-6-4---44-66-7--66-44-6---44-66-7----77-6-|
-|------------------------------------------------------------------------|
-|------------------------------------------------------------------------|
-|------------------------------------------------------------------------|

Verse
Chorus

Break
  Both Gtrís x1, then Gtr 1 does lead, whilst Gtr 2 keeps going x2, ring last note
-|----------------------------------|
-|----------------------------------|
-|-4--------------7-------7-9-----7-|
-|-4->>--4-5------7-7-----7-9->>--7-|
-|-2-----4-5->>---5-7->>--5-7-----5-|
-|-------2-3--------5---------------|

Gtr 1
-|----------------------------------------------------------------------|
-|---------5---------------------5-----7---5----5-----------------------|
-|-4----7-----6---7--4-----7---6-----6--------7---7-6-7-6--7-6-4--ring--|
-|----7------------------7----------------------------------------------|
-|----------------------------------------------------------------------|
-|----------------------------------------------------------------------|
Bridge1
-|-----------------19---------|
-|--------------------19------|
-|--5\4-------------------19--|
-|--5\4--ring-----------------|
-|--3\2-----------------------|
-|----------------------------|

Bridge2
 Gtr 2, (Gtr 1 pickscrape at end)
-|--------------------------------------------------|
-|--------------------------------------------------|
-|-4-----------------9-------4-----------------9----|
-|-4->>--5-----7-----9->>----4->>--5-----7-----9->>-|
-|-2-----5->>--7->>--7-------2-----5->>--7->>--7----|
-|-------3-----5-------------------3-----5-------x\-|
   *     *     *     *       *     *     *

Bridge 3
 Gtr 1
-|-------------------------------------------------------|
-|-------------------------------5---5-7-----------------|
-|-7-6---7-6-4h6p4---7-6---7-6-7---7------7---6---4->>---|
-|-------------------------------------------------------|
-|-------------------------------------------------------|
-|----------------------------------------------------x\-|

Gtr 2, strum each note and let ring,
-|-------------------|
-|-------------------|
-|-4-----------9-----| x2
-|-4---5---7---9-----|
-|-2---5---7---7-----|
-|-----3---5------x\-|

Intro x2

Outro
  Gtr 1
-|---------------------------------|
-|-7-5---5-------7-5---5-----------|
-|-----7---7-6-------7---7-6---2-2-|
-|---------------------------------|
-|---------------------------------|
-|---------------------------------|

Gtr 2
-|---------------------------------|
-|---------------------------------|
-|-4-4-4-----------------------4-4-|
-|-4-4-4--4-4-4--5-5-5--7-7-7--4-4-|
-|-2-2-2--4-4-4--5-5-5--7-7-7--2-2-|
-|--------2-2-2--3-3-3--5-5-5------|
Tap to rate this tab
 
# A B C D E F G H I J K L M N O P Q R S T U V W X Y Z