Guitaretab - guitar tabs
Song name
# A B C D E F G H I J K L M N O P Q R S T U V W X Y Z

Seraphs Coal - Hope Is Where The Heart Is tab

Artist: SERAPHS COAL: 
Song: Hope Is Where The Heart Is 
Album: The More Things Change
Tabbed by: Tim Bryant
E-mail: blueprintyesterday@hotmail.com

Here is a great song from Seraphs. Iíve seen this band play this song live, and
Iím 100% sure that I have tabbed it correctly. If anyone in this big wide world
has any other Seraphs Coal tabs, please e-mail me.
Enjoy!

Guitar 1 (tuned to Eb - all strings tuned down a half step)
Intro
                             (1st)       (2nd)
-----------------------------(XX)--------(-)--------------------
-----------------------------(--)--------(-)--------------------
-9-9--9-9--9--9-9--9--9-9--9-(--)-repeat-(9)--------------------
--------7--7--7-0--0--0-7--7-(--)--------(7)--------------------
-7-7--7-9--9--9-0--0--0-0--0-(77)--------(0)--------------------
-----------------------------(55)--------(-)--------------------


Verse 1

----------------------------------------------------------------
----------------------------------------------------------------
-9-9--9-9--9--9-9--9--9-9--9--9--play 4 times. Last time--------
--------7--7--7-0--0--0-7--7--7--strum final chord--------------
-7-7--7-9--9--9-0--0--0-0--0--0---------------------------------
----------------------------------------------------------------


Chorus 1

----------------------------------------------------------------                
-----------------------------------7-7-7/9x10-10x9-99/10-strum--
------------------------------------------x-----x--------last---
-----------------------------------4-4-4/6xo7-o7x6-66/o7-octave-
-7-7-7/9x44x2-222-7-7-7/9x44x2-222------------------------------
-5-5-5/7x22x0-000-5-5-5/7x22x0-000------------------------------



(1st)        (2nd)
(------)--------(XX)--------------------------------------------
(------)--------(--)--------------------------------------------
(------)-repeat-(--)--------------------------------------------
(9999--)--------(--)--------------------------------------------
(7777-2)--------(77)--------------------------------------------
(-----0)--------(55)--------------------------------------------

[ Tab from: http://www.guitaretab.com/s/seraphs-coal/45883.html ]
Verse 2
                              (1st - let notes ring)
------------------------------(--------------------------------) R
------------------------------(-12-------10-------9-------10---) e
-9-9--9-9--9--9-9--9--9-9--9--(9----9---9----9---9---9---9----9) p
--------7--7--7-0--0--0-7--7--(--------------------------------) e
-7-7--7-9--9--9-0--0--0-0--0--(--------------------------------) a
------------------------------(--------------------------------) T



(*2nd)
(------------------------------)--------------------------------
(------------------------------)--------------------------------
(9-9--9-9--9--9-9--9--9-9--9--9)-repeat from *2nd.--------------
(-------7--7--7-0--0--0-7--7--7)-last time strum----------------
(7-7--7-9--9--9-0--0--0-0--0--0)-final chord--------------------
(------------------------------)--------------------------------

Chorus 2 - play chorus 1 but ignore 2nd time bar.

Bridge

------------------------------------------------XX--------------
----------------------------------------------------------------
-----------------6/7777/99911-11--9-99--6-6-/9\7777\6x----------
-----------------------------------------------------x----------
-4-4--2-22--7-7--4/5555/777o9-o9--7-77--4-4-/7\5555\4x4-4-4442--
-2-2--0-00--5-5---------------------------------------2-2-2220--




-----------------------------------------------------|----------
-----------------------------------------------------|-gap;--10-
-----------------------------------------------------|-then-----
-------7-7-777-777-----------9-9-9997-7-777-7/9999999|-strum-o7-
-2-222-5-5-555-5557-7-4-4-4447-7-7775-5-555-5/7777777|----------
-0-000------------5-5-2-2-222------------------------|----------

Chorus 3 - play chorus 1 but ignore 2nd time bar
                                        
------------------------------XX--------------------5-----------
-7-7-7/9x10-10x9-99/10-strum------7-7-7/9--10---9---5-----------
--------x-----x--------last-------------------------7-let ring--
-4-4-4/6xo7-o7x6-66/o7-octave-----4-4-4/6--o7---6---7-----------
------------------------------77--------------------5-----------
------------------------------55--------------------------------

Any comments/ corrections please e-mail them to me.
Related for Hope Is Where The Heart Is tab