Guitaretab - guitar tabs
Song name
# A B C D E F G H I J K L M N O P Q R S T U V W X Y Z

Seraphs Coal - Human Error tab

Artist: SERAPHS COAL 
Song: Human Error
Album: "Don't Mind If I Don't"
Tabbed by: Tim Bryant
Email: blueprintyesterday@hotmail.com

This is the best song I have eva seen live. It is fast, and has wikid riffs.
I got sum help from a mate on this tab, and I am sure it is now 100% correct. Thanx Jez

Guitar 1

Intro - bass starts
                    (1st 3 times)
--------------------(----------)--------------------------------
--------------------(----------)--------------------------------
--------------------(----------)-play 4-------------------------
-----------7-7-7-74-(4444444444)-times--------------------------
-5554-4-4-45-5-5-52-(2222222222)--------------------------------
-3332-2-2-2---------(----------)--------------------------------


Verse 1
(1st     )(2nd                            )
(--------)(-------------------------------)---------------------
(--------)(-------------------------------)---------------------
(--------)(-------------------------------)---------------------
(--------)(-------------------------------)---------------------
(77-7-777)(9-99-99-999-999-7-77-77-777-777)---------------------
(55-5-555)(7-77-77-777-777-5-55-55-555-555)---------------------



----------------------------------------------------------------
----------------------------------------------------------------
----------------------------------repeat------------------------
----------------------------------------------------------------
-9-99-99-999-999-5-55-5557-77-777-------------------------------
-7-77-77-777-777-3-33-3335-55-555-------------------------------


Pre-chorus 1
                 (1st & 3rd       )(2nd          )
-----------------(----------------)(-------------)--------------
-----------------(----------------)(-------------)--------------
-----------------(----------------)(-------------)-play 4-------
-7-77-777--------(4-44-444--------)(4-44-444-----)-times--------
-5-55-5554-44-444(2-22-2225-55-555)(2-22-2225-5-5)--------------
---------2-22-222(--------3-33-333)(--------3-3-3)--------------

[ Tab from: http://www.guitaretab.com/s/seraphs-coal/45884.html ]
Chorus 1
                             (1st    ) (2nd
-----------------------------(-------)r(--------XX----------XX--
-----------------------------(-------)e(------------------------
-----------------------------(-------)p(------------------------
-----------------------------(-------)e(------------------------
-9-----9\77-----7\55-----5\44(----4/9)a(4444-4-4554-4444-4-4554-
-7-----7\55-----5\33-----3\22(----2/7)t(2222-2-2332-2222-2-2332-



                        )(Chorus 1  )            (Chorus 2 )
---------XX-------------)(----------)------------(---------)----
------------------------)(----------)-repeat-----(---------)----
------------------------)(----------)-whole song-(hold last)----
-------------------7-6-4)(4444444444)-from intro-(chord----)----
-4444-4-4554-4444445-4-2)(2222222222)------------(---------)----
-2222-2-2332-222222-----)(----------)------------(---------)----




Bridge
                                     (1st)
-------------------------------------(---)----------------------
-------------------------------------(---)----------------------
-------------------------------------(---)-repeat---------------
------------------------------7-7x---(---)----------------------
-9-9-9\77/99-9-9\55/99-9-9\77x5-5x4-4(/9-)----------------------
-7-7-7\55/77-7-7\33/77-7-7\55x----2-2(/7-)----------------------


Outro
                          (4th)
--------------------------(---)---------------------------------
--------------------------(---)---------------------------------
--------------------------(---)-play 4--------------------------
--------------------------(---)-times---------------------------
-9-99912-9-12-12121214-15\(99-)---------------------------------
-7-77710-7-10-10101012-13\(77-)---------------------------------

Symbols used - "X" palm mute; "x" string noise; "/" slide up;
"\" slide down.

Structure - "repeat" go back to the start of the verse/chorus 
etc you are in, NOT the start of the song; "(1st)" first time bar 
- the first time through the section of the song you are in, play 
the tab inside the (1st) brackets and ignore the (2nd) brackets. 
The second time you play through that section, ignore the (1st)
brackets and play the tab inside the (2nd) brackets, and so on 
for 3rd & 4th; "chorus 1/2" the first time through the chorus,
play the tab inside the "chorus 1" brackets, and so on for 
"chorus 2".
Related for Human Error tab