Guitaretab - guitar tabs
Song name
# A B C D E F G H I J K L M N O P Q R S T U V W X Y Z

Seraphs Coal - One More Try tab

Artist: SERAPHS COAL
Song: One More Try
Album: "Operation Save The Humans"
Tabbed By; Tim Bryant
Email: blueprintyesterday@hotmail.com

Guitar 1

Intro - 4 cymbals
                                          (1st               )
------------------------------------------(------------------)-r
------------------------------------------(------------------)-e
-------------------------6-8-9------------(999111111131313119)-p
---------4-44-444-------------------------(------------------)-e
-2-22-2222-22-2226-66-6664-6-7-7-79-99-999(777o9o9o9111111o97)-a
-0-00-000--------4-44-444------5-57-77-777(------------------)-t


Verse 1

XX--XX--XX--XX--XX--XX--XX--XX--XX--XX--XX--XX-----------------r
---------------------------------------------------------------e
---------------------------------------------------------------p
--9---9---9---9---9---9---9---9---6---6---6---6----------------e
777-777-777-777-666-666-666-666-444-444-444-4446-77-7776-77-777a
-----------------------------------------------4-55-5554-55-555t


Pre-chorus 1

----------------------------------------------------------------
---------------------------------------Chorus 1: play intro-----
---------------------------------------Verse 2: play verse 1----
-4-42----4-42-----4-42----4-4-44444444 Pre-chorus 2: play p-c 1-
-2-20----2-20-2-2-2-20----2-2-22222222-Chorus 2: play intro-----
--------------0-0-----------------------------------------------



Bridge

-XXX----XXX----XX--XX--XX--XX----------------------------------r
---------------------------------------------------------------e
---------------------------------------------------------------p
----6-6----6-6-----------------6-66-6667-x6-666----------------e
-7777-7-7777-7---9---9---9---9-4-44-4444-x4-4447-77-7777-77-777a
---------------777-777-777-777-----------------5-55-5555-55-555t



[ Tab from: http://www.guitaretab.com/s/seraphs-coal/45885.html ]
------XX---XX---XX---XX---XX---XX-------------------------------
------------------------------------------10-9-7----------------
gap-------------------------------------------------------------
------------------------------------------o7-6-4----------------
----6-6666-6667-7777-7779-9999-99x2-2-2222-------6-66-66-6667---
----4-4444-4445-5555-5557-7777-77x0-0-0000-------4-44-44-4445---




----------------------------------------------------------------
----------------------------------------------------------------
----------------------------------------------------------------
---------------------------------------------------------------6
77-7777-77-7779-99-9999-99-99911-------9-------7-----------7-9-4
55-5555-55-5557-77-7777-77-777o9-------7-------5-----------5-7--




----------------------------------------------------------------
----------------------------------------------------------------
----------------------------------------------------------------
66-6666-66-6664-44-4444-44-4442---------------4-44-4444-44-4444-
44-4444-44-4442-22-2222-22-2220---------------2-22-2222-22-2222-
----------------------------------------------------------------


Outro - play intro but ignore 1st time bar & repeat

----------------------------------------------------------------
----------------------------------------------------------------
----------------------------------------------------------------
----------------------------------------------------------------
-2---2---2-hold-------------------------------------------------
-0---0---0------------------------------------------------------

Symbols used - "X" palm mute; "x" string noise; "o" used to make 
2 digit fret references line up with 1 digit references on 
another string (see octaves in intro).

Structure - "(1st)" first time bar - play the tab inside the    
brackets the first time through that section only. Ignore it the
second time.

Thatís all enjoy!
Related for One More Try tab