Song name
# A B C D E F G H I J K L M N O P Q R S T U V W X Y Z

Serart - Leave Melody Counting Fear tab

Help us improve GuitareTab! Take a short survey!
                           Serart - Leave Melody Counting Fear

Album:Serart
Tabbed by:RaRaRiot
Email:Sordfish999@aol.com

Tuning:Standard

This part is played as the intro and in the background throughout the song:
e|---------------------------------------------------------------------------|
B|---------------------------------------------------------------------------|
G|--------0-----------0-----------2-----------2------------------------------|
D|------2---2-------2---2-------1---1-------1---1----------------------------|
A|----2-------2---2-------2---2-------2---2-------2--------------------------|
E|--0-----------0-----------0-----------0-----------0------------------------|

Then this comes in:
e|--5h7------7-7p5---5-----7-7p5---------------------------------------------|
B|-----------------8-------------8-5-----------------------------------------|
G|---------------------------------------------------------------------------|
D|---------------------------------------------------------------------------|
A|---------------------------------------------------------------------------|
E|---------------------------------------------------------------------------|

At about 1:11 this comes in. Just tremelo pick it:
e|--5----3--8--5----3--0-------3--0------------------------------------------|
B|--------------------------3------------------------------------------------|
G|---------------------------------------------------------------------------|
D|---------------------------------------------------------------------------|
A|---------------------------------------------------------------------------|
E|---------------------------------------------------------------------------|

Then (2:02):
e|--7--7--7--10--5--5--5--7-7p5----------------------------------------------|
B|------------------------------8-5------5-8-8-8-8-5-8-----------------------|
G|-------------------------------------7--------------------------------------|
D|---------------------------------------------------------------------------|
A|---------------------------------------------------------------------------|
E|---------------------------------------------------------------------------|

I gave pretty much all the parts to the song. Have fun!

| /  slide up
| \  slide down
| h  hammer-on
| p  pull-off
| ~  vibrato
| +  harmonic
| x  Mute note
=============================================================================
Related for Leave Melody Counting Fear tab