Song name
# A B C D E F G H I J K L M N O P Q R S T U V W X Y Z

Serart - Geetar tab

I was waiting for someone to tab a song off serart for a while so i decided
to tab it myself. the tuning is drop c.

d-----------------------------------------------------------|
a------4----------------------------------------------------|
f----3---3---2---2/(0)-----------1---1----------------------|
c------------------------------2---2--------1---1-----------|
g-------------------00000000--------------2---2----00000000-|
c--0-------0---0----00000000-----------------------00000000-|

then..


d-------------------------------------------------------------|
a---2---2-----1-----1-----------------------------------------|
f----------------------------------1---1----------------------|
c--------------------------------2---2--------1---1-----------|
g----------------------00000000-------------2---2----00000000-|
c-0---0----0----0------00000000----------------------00000000-|

then..

d------------------------------------------------------------------|
a-----15----15-----18----18------16--------15----15----15-15-15-14-|
f--14----14-----16----16-----14--15-----14----14----14-------------|
c------------------------------------------------------------------|
g------------------------------------------------------------------|
c------------------------------------------------------------------|


then ends with  d--------|
                a--19-16-|
                f--------|

please rate 5 stars and submit any changes to t0mmy9@hotmail.com.
if anyone wants me to try to tab anymore serart email me. thanks :)
Tap to rate this tab
# A B C D E F G H I J K L M N O P Q R S T U V W X Y Z