Song name
# A B C D E F G H I J K L M N O P Q R S T U V W X Y Z

Serart - Walking Experiment tab

A great song, there's not much guitar in it though.
heres the tab, its just this over and over again in the background.

here it is in drop c as it should be:

d------------------------------------------|
a-14-15------------------14-15-------------|
f-------14-14/15/12--12--------14-14-15-17-|
c------------------------------------------|
g------------------------------------------|
c------------------------------------------|


but here is how it can be done in standard tuning:

e------------------------------------------|
a-12-13-----------------12-13--------------|
d-------12-12/13/10--10-------12-12-13-15--|
g------------------------------------------|
b------------------------------------------|
e------------------------------------------|


thank you, please rate 5 stars!         t0mmy9@hotmail.com
Tap to rate this tab
# A B C D E F G H I J K L M N O P Q R S T U V W X Y Z