Song name
# A B C D E F G H I J K L M N O P Q R S T U V W X Y Z

Serge Gainsbourg - Cannabis tab

intro
e|----------------------6666666-|
B|------------------------------|
G|---3333333-/----\--5/7--------|
D|-----------|-3X-|-------------|
A|3/5--------\----/-------------|
E|------------------------------|

verse
G|-------------------------------3--------|
D|--3~-353-------7~-8\7-53---------353----|
A|1--------3-311----------35-1-35-----353-|
E|----------------------------------------|
chorus
G|-------------------------------------------------------|
D|----------------------------------------------------3~-|
A|----1133/5------1-1-111--13311---1-135(5355656~)-111---|
E|1~-3--------1~-3-3-------------13----------------------|

Bb                        Gm              Dm
La mort a pour moi le visage d'une enfant,
D#         Bb           F
 Au regard transparent,
Bb       F                 Gm              Dm
Son corps habile au raffinement de l'amour,
D#                Bb         F
 Nous prendras pour toujours,

F7                Bb
Elle m'appelle par mon nom,
F                           Bb
Quand soudain je perds la raison,
          D#
Est ce un malefice,
          Dm     D#       F
Ou l'effet subtil du cannabis. [2x]

La mort ouvrant sous moi
Ses jambes et ses bras,
S'est refermée sur moi,
Son corps m'arrache enfin les rales du plaisir,
Et mon dernier soupir.

BY UHOA
Tap to rate this tab
# A B C D E F G H I J K L M N O P Q R S T U V W X Y Z