Song name
# A B C D E F G H I J K L M N O P Q R S T U V W X Y Z

Serge Gainsbourg - Je Taime Moi Non Plus tab

Je T'aime Moi Non Plus

e|---0--1--0--1--3---1--0--------1--0--1--3---------1--0--1--3---1--0--------|
B|-------------------------3--3----------------------------------------3--3--|
G|---------------------------------------------------------------------------|
D|---------------------------------------------------------------------------|
A|---------------------------------------------------------------------------|
E|---------------------------------------------------------------------------|

e|-3--1--5--7----8--10--13--12-10-8--8----8-7-5--5-------12-10-8--8----8-7-5-|
B|----------------------------------------------------8----------------------|
G|---------------------------------------------------------------------------|
D|---------------------------------------------------------------------------|
A|---------------------------------------------------------------------------|
E|---------------------------------------------------------------------------|

e|-5----3--5--5--8--10-------------------------------------------------------|
B|---------------------------------------------------------------------------|
G|---------------------------------------------------------------------------|
D|---------------------------------------------------------------------------|
A|---------------------------------------------------------------------------|
E|---------------------------------------------------------------------------|

 Then back to the start.
                        Enjoy xx
Tap to rate this tab
# A B C D E F G H I J K L M N O P Q R S T U V W X Y Z