Song name
# A B C D E F G H I J K L M N O P Q R S T U V W X Y Z

Serge Gainsbourg - Evguenie Sokolov tab

-------------------------------------------------------------------------------
                              Serge Gainsbourg - Evguénie Sokolov
-------------------------------------------------------------------------------
Album : Mauvaises nouvelles des étoiles
Tempo : 80
E-mail: gwendal.mollo@orange.fr
Tabbed by: newg


Rythm Guitar :
          Cm                       G
E |--------3-----------3-----------3-----------3-------|
B |--------4-----------4-----------3-----------3-------|
G |--------5-----------5-----------4-----------4-------|
D |--------5-----------5-----------5-----------5-------|
A |----------------------------------------------------|
E |----------------------------------------------------|


--------3-----------3-----------3-----------3-------|
--------3-----------3-----------4-----------4-------|
--------4-----------4-----------5-----------5-------|
--------5-----------5-----------5-----------5-------|
----------------------------------------------------|
----------------------------------------------------|

repeated throughout the song


Guitar 2 (Palm mute + Wah Wah) :

Riff 1 :
E ||---------------------------------------------------|
B ||---------------------------------------------------|
G ||-5--5--------------5-----4-------------------------|
D ||---------------------------------------------------|
A ||---------------------------------------------------|
E ||---------------------------------------------------|


---------------------------------------------------|
---------------------------------------------------|
--4--4--------------------5--5---------------------|
---------------------------------------------------|
---------------------------------------------------|
---------------------------------------------------|

Riff 2 :
E |----------------------------------------------------|
B |----------------------------------------------------|
G |--5-----------------5-----4-----------------4-------|
D |----------------------------------------------------|
A |----------------------------------------------------|
E |----------------------------------------------------|


----------------------------------------------------|
----------------------------------------------------|
--7-----------------7-----8--5--------------8-------|
----------------------------------------------------|
----------------------------------------------------|
----------------------------------------------------| x4

Bass :

G |----------------------------------------------------|
D |--------------5-------------------------------------|
A |--3--3--6--6--------------------------5-------------|
E |--------------------------3--3--6--6----------------|


----------------------------------------------------|
----------------------------------------------------|
--------------5-----------3--3--6--6--3-------------|
--3--3--6--6----------------------------------------| 

repeated throughout the song
Tap to rate this tab
# A B C D E F G H I J K L M N O P Q R S T U V W X Y Z