Song name
# A B C D E F G H I J K L M N O P Q R S T U V W X Y Z

Sergei Orekhov - Sleepy Weeping Willows tab

   Moderato

   |   .   %   .   |   .     |   .  |   .  |   .     |   .  |  .  |  .
||-15--14--12--------------|-----------------------|--------------0--2--|
||-------------15--13--12--|-11------------11------|-10--0--2--4--------|
||-------------------------|------------9------11--|--------------------|
||-------------------------|--------11-------------|--------------------|
||-------------------------|-----9-----------------|--------------------|
||-0-----------------------|-----------------------|-7------------------|
   mf

   |  .  |  .  |  .    |  .  %  .  |  .    |  .  |  .  |  .    |  .  |  .  |  .
 |-5--4--------------|-------------------|-------------------|-------------------|
 |-------7--5--------|-8--7--5-----------|-------------------|-------------------|
 |-------------5--4--|----------7--5--4--|-3-----------3-----|-2-----------------|
 |-------------------|-------------------|----------2-----4--|-------------5--4--|
 |-------------------|-------------------|-------4-----------|----2--4--6--------|
 |-0-----------------|-0-----------------|----2--------------|-------------------|


   |  .  |  .  |  .    |  .  |  .  |  .    |  .  |  .  |  .    |  .  |  .  |  .  
 |-------------0-----|-7-----6-----5-----|-3-----------0-----|-7-----------------|
 |-------------0-----|-8-----------7-----|-5-----4-----------|-5-----7-----5-----|
 |-------------0-----|-------------------|-4-----------------|-5-----5-----5-----|
 |-2-----------------|-------------------|-------------------|-------------------|
 |-------------------|-------------------|-------------------|-0-----------------|
 |-0-----------------|-0-----------------|-0-----------------|-------------------|
                      (legato)

                                           ,.,.,.,
 |-5-----------------|-5-----7-----8-----|-10------------12-----|-10-----------------|
 |-------7-----5-----|-------------5-----|-7------10------------|--------0-----------|
 |-------5-----5-----|-5-----7-----------|----------------------|--------9-----7-----|
 |-------------------|-0-----------------|-0--------------------|--------------9-----|
 |-0-----------------|-------------------|----------------------|-10-----------------|
 |-------------------|-------------------|----------------------|--------------------|
                                          (arp.)


 |-10-----------------|-10-----10-----11-----|-12-----10-----12-----|
 |--------------------|----------------------|-9--------------------|
 |--------9-----7-----|-7--------------------|-9--------------------|
 |--------9-----9-----|-9--------------------|----------------------|
 |-9------------------|-8--------------------|----------------------|
 |--------------------|----------------------|-0--------------------|
                       (un po' accellerando)


 |-10-------------------|-8--------------0--|-7-----7-----7-----|-8------7-----7-----|
 |--------7-------------|-7-----0-----------|-7-----------------|-10-----------10----|
 |---------------9------|----------5--8-----|-------------------|-9------------8-----|
 |--------10-----10-----|----7--------------|-------------------|--------------------|
 |-0--------------------|-0-----------------|-------------------|--------------------|
 |----------------------|-------------------|-7-----------------|-7------------------|



 |-12-------------------|-12------------------|-8------5-----0-----|
 |----------------------|---------------------|-10-----7-----7-----|
 |--------12-----11-----|--------10-----9-----|--------------------|
 |---------------10-----|--------9------------|--------------------|
 |----------------------|---------------------|-0------------------|
 |-8--------------------|-7-------------------|--------------6-----|



 |-0-----------0-----|-------------------|------------------||--------------------|
 |-8-----------------|-7-----------------|------------------||--8--0--------8--7--|
 |-------8-----------|-------6-----8-----|-9----------------||*-------6--8--------|
 |-------------------|-7-----------------|-9----------------||*-------------------|
 |-------------------|-------------9-----|-10---------------||--------------------|
 |-7-----------------|-7-----------------|-0----------------||--0-----------------|
                                                               (mosso)


 |-------------------|----0--------------|-------------------|-------------------|
 |-5-----------------|-------1-----------|----1--------------|----------------0--|
 |----4-----0--------|-0--------2--1--0--|-------2-----------|----------0--2-----|
 |-------7-----------|-------------------|-4--------4--2--1--|----2--4-----------|
 |-------------6--7--|-0-----------------|-------------------|-5-----------------|
 |-0-----------------|-------------------|-------------------|-------------------|



 |-------0--2--3--5--|-7--------------0--|-------------------|-------0-----7--5--|
 |-1--3--------------|----7--5--3--------|-3-----------------|----3-----6--------|
 |-------------------|-0-----------6-----|----4--2--1--0-----|-------------------|
 |-------------------|-------------------|----------------4--|-3-----------------|
 |-------------------|-------------------|-------------------|-------------------|
 |-------------------|-------------------|-------------------|-------------------|



 |-4-----------------|-------------0-----|-2--0--------------|-------------------|
 |----3--6--5--------|-3--1--0--1-----4--|-------1-----------|----0--------------|
 |-------------3--4--|-------------------|----------2--0-----|-5-----------0--2--|
 |-------------------|-------------------|----------------4--|-------2--4--------|
 |-------------------|-0-----------------|-0-----------------|-------------------|
 |-0-----------------|-------------------|-------------------|-7-----------------|


                        |   .  |  .  |  .    ,.,.,.,.,
 |-------5--7--9--11--|-12--------8--------|-------------------|--------------------|
 |----4---------------|-8------------8-----|-7-----------------|--------------------|
 |-4------------------|-9---------------8--|----------9--7--6--|--------------------|
 |--------------------|--------------------|-------------------|-10-----7-----4-----|
 |--------------------|-11-----------------|-------------------|-0---9-----7--------|
 |--------------------|-8------------------|-------------------|-----------------6--|
                                                     (rall.)
                                          ____________________  _____________________
                                         | 1.                  | 2.
 |-------------------|-------------------|-------------0--2---||-------0------12-----|
 |-------------------|-------------------|----0--2--4---------||----0-----12---------|
 |-------------------|-------------------|-------------------*||---------------------|
 |----2--4--5--1-h2--|-4-----------4--1--|-2-----------------*||-2-------------------|
 |-2-----------------|----2--3--4--------|--------------------||---------------------|
 |-------------------|-------------------|--------------------||---------------------|

     ---5---
     i a m i                       simile
 |---7-7-7-7---6-6-6-6---5-5-5-5-|----2-----2-----0--|----7-----7-----7--|
 |-------------------------------|-------------------|-------------5-----|
 |-------------------------------|-------------0-----|-------5-----------|
 |-------------------------------|-2-----4-----------|-------------------|
 |-----------4---------6---------|-------------------|-0-----------------|
 |-7-----------------------------|-------------------|-------------------|



 |----5-----5-----5--|----5-----7-----8--|----10-----5------12--|
 |-------------------|-------8-----------|----------------------|
 |-------5-----------|-------------8-----|-7------6-------------|
 |-4-----------2-----|-------------------|--------------10------|
 |-------------------|-6-----------------|----------------------|
 |-------------------|-------------------|----------------------|



 |----10-----10-----10--|----10-----10-----10--|-----10-----10-----11--|
 |--------8-------------|--------7-------------|-----------------------|
 |----------------------|----------------------|-----------------------|
 |-9-------------8------|-7-------------7------|-----------------------|
 |----------------------|----------------------|-10------9------8------|
 |----------------------|----------------------|-----------------------|



 |----12-----10------12--|----10-----10-----10--|-----8-----8-----8--|
 |-----------------------|----------------------|--------------5-----|
 |-----------------------|--------9------9------|--------5-----------|
 |--------9------10------|----------------------|--------------------|
 |-7---------------------|-0--------------------|--------------------|
 |-----------------------|----------------------|--6-----------------|


 
 |----7-----7-----7--|-----8------7-----7--|----12------12------12--|
 |-------0-----0-----|---------------9-----|------------------------|
 |-------------------|-10-----11-----------|-9------11------12------|
 |-------------------|---------------------|------------------------|
 |-------------------|---------------------|------------------------|
 |-7-----------------|---------------------|------------------------|



 |----12------12------12--|------12------12------12--|------12-----12-----12--|
 |-9------10------12------|--13------10--------------|------------------------|
 |------------------------|------------------11------|--12------8------9------|
 |------------------------|--------------------------|------------------------|
 |------------------------|--------------------------|------------------------|
 |------------------------|--------------------------|------------------------|



 |-----11------11-----11--|----12-----12------12--|-------------------|
 |------------------------|--------8------12------|----------2-----4--|
 |-11--------------8------|-9---------------------|-4-----3-----2-----|
 |---------11-------------|-----------------------|----2--------------|
 |------------------------|-----------------------|-------------------|
 |------------------------|-----------------------|-3-----------2-----|
                                   rit.             a tempo


 |----0-----0-----0--|-------2-----------|-------0-----1-----|----2-----3-----5--|
 |----0-----0-----0--|----5-----5--------|----1-----1-----1--|-------------------|
 |-0--------0-----0--|-4-----------5--4--|-2-----------------|-2-----4-----5-----|
 |-------1-----2-----|-------------------|-------------------|-0-----------------|
 |-------------------|-2-----------------|-3-----------------|-------------------|
 |-0-----------------|-------------------|-------------------|-------------------|
                                                              (legato)

                                                                           ,.,.,.
 |----7-----------8--|----7--3-----------|-------2-----------|-------------------|
 |----------7--5-----|-3--------3--0-----|----------5--4-----|-3-----------------|
 |-7-----------------|-0--------------0--|----3-----------2--|----2--4--5--7--7--|
 |-------7-----------|-------------------|-4-----------------|-3-----------------|
 |-------------------|-------------------|-------------------|-------------------|
 |-------------------|-------------------|-------------------|-------------------|



 |----8-----7-----8--|----7-----7-----6--|----5--------------|----------------------|
 |-5-----------5-----|-------------------|-------8--5--------|----10-----10-----10--|
 |-------7-----------|-7-----7-----6-----|-5-----------5-----|----8------8------8---|
 |-6-----------------|-------------------|----------------7--|-9------9------9------| 
 |-------------------|-0-----------------|-0-----------------|----------------------|
 |-0-----------------|-------------------|-------------------|-7--------------------|



 |---------------------|----0--------------|-------------------|----0-----0-----0--|
 |-----10-----8-----8--|-------1-----------|-------3--------0--|-1-----------------|
 |-----7------7-----7--|----------0--------|-------------2-----|-------2-----------|
 |-10------9-----7-----|-------------2-----|----3-----3--------|-------------4-----|
 |---------------------|-3--------------3--|-2-----------------|-0-----------1-----|
 |-7-------------------|-------------------|-------------------|-------------------|



 |-------2--0--------|-------0-----------|-------0--3--5--6--|-5-----6-----5-----|
 |-------0-----------|----------4--------|----0--------------|-------5-----3-----|
 |----0--------------|----2--------------|-------------------|-6-----6-----6-----|
 |-------------1--2--|-4--------------1--|-2-----------------|-------5-----4-----|
 |-2-----------------|-------------4-----|-------------------|-------------------|
 |-------------------|-------------------|-0-----------------|-0-----------------|
                                          (piu largo)         (arpeggiando)



 |-3-----------0-----|-7-----2----p0-----|-------------------|-3-----------0-----|
 |-2-----4-----------|-5-----------------|-4-----------------|-2-----3-----------|
 |-3-----2-----2-----|-5-----------------|-5-----------------|-3-----3-----2-----|
 |-2-----4-----6-----|-------------------|-3-----4----p3-----|-2-----4-----6-----|
 |-------3-----4-----|-0-----------------|-------------------|-------4-----3-----|
 |-------------------|-------------------|-------------------|-------------------|


                                                               --3--  --3--
 |-2-----------------|-0-----------------|-------------------|-2---0---------------|
 |-1-----2-----4-----|-0-----------------|----------0-----0--|--------3---1--0-----|
 |-2-----0-----2-----|-0-----------------|-------0-----1-----|---------------0-----|
 |-1-----2-----4-----|-------------------|-2--4--------------|---------------2-----|
 |-------1-----4-----|-------------------|-------------------|---------------2-----|
 |-------------------|-0-----------------|-------------------|---------------0-----|


        (o)
 |-0-----0-----------||
 |-0-----0-----------||
 |-0-----0-----------||
 |-2-----------------||
 |-2-----------------||
 |-0-----------------||
Tap to rate this tab
# A B C D E F G H I J K L M N O P Q R S T U V W X Y Z