Guitaretab - guitar tabs
Song name
# A B C D E F G H I J K L M N O P Q R S T U V W X Y Z

Sergei Prokofiev - Peter And The Wolf tab

this is the last submition! and the most correct one!, sorry:)

Peter and the Wolf

(/) - slide down.
(x) - play it silent.

E -3--------------------------------------------------2-3---
A ----3-------------------------3-5-2--2/10-2--2/10-2-x-x---
D -------2-5---5--2-5-------5-2-----1--1/09-1--1/09-1-1-2---
G -----------2--------2-4-5---------------------------------
B ----------------------------------------------------------
E ----------------------------------------------------------
[ Tab from: http://www.guitaretab.com/s/sergei-prokofiev/104367.html ]
E -6--------------------------------------------------5-6---
A ----6-------------------------6-8-5--5/13-5--5/13-5-x-x---
D -------5-8---8--5-8-------8-5-----4--4/12-4--4/12-4-4-5---
G -----------5--------5-7-8---------------------------------
B ----------------------------------------------------------
E ----------------------------------------------------------

you can play it anywhere on the guitar as long as you begin the first part on a G note and the second on an A# note!

http://en.wikipedia.org/wiki/Sergei_Prokofiev
Related for Peter And The Wolf tab
×
Peter And The Wolf