Song name
# A B C D E F G H I J K L M N O P Q R S T U V W X Y Z

Sergei Prokofiev - Peter And The Wolf tab

Sorry, guys. The last person to tab this piece somehow managed to flip it all 
Here's the correct version. Enjoy~

(/)  Slide Down.
(x)  Play It Silently.


E ----------------------------------------------------------|
A ----------------------------------------------------------|
D -----------2--------2-4-5---------------------------------|
G -------2-5---5--2-5-------5-2-----1-1/09-1-1/09-1-1-2---|
B ----3-------------------------3-5-2-2/10-2-2/10-2-x-x---|
E -3--------------------------------------------------2-3---|

E ----------------------------------------------------------|
A ----------------------------------------------------------|
D -----------5--------5-7-8---------------------------------|
G -------5-8---8--5-8-------8-5-----4-4/12-4-4/12-4-4-5---|
B ----6-------------------------6-8-5-5/13-5-5/13-5-x-x---|
E -6--------------------------------------------------5-6---|
Tap to rate this tab
 
# A B C D E F G H I J K L M N O P Q R S T U V W X Y Z