Song name
# A B C D E F G H I J K L M N O P Q R S T U V W X Y Z

Sergej Cetkovic - Nazovi Me chords

Highlighted       Show chord diagrams
Hallo, my name is Vladimir, Im from Serbia.
Nice song.




                 Sergej Cetkovic - Nazovi me
                (album: Kad ti zatreba, 2005)




These chords are very correct, but funny, very funny!




Intro:

  Gm                 F              D#maj7   E(b5)    Dsus4  D
e|--------------------------------------------------------------|
B|------3-------------------------------------------------------|
G|-------3---------------------------5/7--5-3-3/5---3--2--------|
D|---5----5----5-7-8-7--7/8\7---5-7-8---------------------------|
A|--------------------------------------------------------------|
E|--------------------------------------------------------------|


  Gm                                       D#                 F
e|---6-5-6---6-5-6-3-----6-5-6---6-5-6-6/8----6-5-6---6-5-6-3-----6-5-6--6/8--6-5-6-3---|
B|------------------------------------------------------------6-------------------------|
G|--------------------------------------------------------------------------------------|
D|--------------------------------------------------------------------------------------|
A|--------------------------------------------------------------------------------------|
E|--------------------------------------------------------------------------------------|



Gm
Nocas me svi, na tebe podsjete
D#
pogledima, moju bol osjete
F                            Bb    Ahalf-dim  D7
cutim, a znam da dijele nas dani



Gm
Mrzim sto svi, za tebe pitaju
D#
sa usana, tugu mi citaju
F                           Bb
eh da si tu, kao nekad k'o lani



Cm           Cm/A
Ne nisam jak, slome me pitanja
Gm              F
gdje li si sad, uzalud skitanja
D#maj7      E(b5)        Dsus4  D
cutim, a znam da sada smo sami



Gm       Gm/F
Nazovi me, da si
     Cm
jos dobro to mi javi
F           F/D#
ja nemam kud, ti stalno
   Bb          Bb/A
si tu u mojoj glavi
     Gm            Gm/F
k'o spas, nazovi me
             Cm
bez tebe su dugi ovi dani
    F      F/D#          Dsus4  D
jer kao lud, jos zivim za nas



Intro



Gm
Mrzim sto svi, za tebe pitaju
D#
sa usana, tugu mi citaju
F                           Bb
eh da si tu, kao nekad k'o lani



Cm           Cm/A
Ne nisam jak, slome me pitanja
Gm              F
gdje li si sad, uzalud skitanja
D#maj7      E(b5)        Dsus4  D
cutim, a znam da sada smo sami



Gm       Gm/F
Nazovi me, da si
     Cm
jos dobro to mi javi
F           F/D#
ja nemam kud, ti stalno
   Bb          Bb/A
si tu u mojoj glavi
     Gm            Gm/F
k'o spas, nazovi me
             Cm
bez tebe su dugi ovi dani
    F      F/D#            D  E
jer kao lud, jos zivim za nas...



Chords: Am, Am/G, Dm, G, G/F, C, C/B
        Am, Am/G, Dm, G, G/F, E



Am       Am/G
Nazovi me, da si
     Dm
jos dobro to mi javi
G           G/F
ja nemam kud, ti stalno
    C           C/B
si tu u mojoj glavi
      Am            Am/G
k'o spas, nazovi me
             Dm
bez tebe su dugi ovi dani
G          G/F             E
jer kao lud, jos zivim za nas
    Am
za nas.




Used Chords:
                EADGBe
Gm--------------355333
F---------------133211
D#maj7----------x6533x
E(b5)-----------x7855x
Dsus4-----------xx0233 or x5778x
D---------------xx0232 or x57775
D#--------------x68886 or even better: x65343
Bb--------------x13331
Ahalf-dim-------x0101x
D7--------------xx0212
Cm--------------x35543
Cm/A------------5x554x
Gm/F------------xx3333 or 113333
F/D#------------1x1211
Bb/A------------x0333x
E---------------022100
Am--------------x02210
Am/G------------302210
Dm--------------xx0231
G---------------320033
G/F-------------130033
C---------------x32010
C/B-------------x20010


Enjoy
Any comments post me at tordajav@yahoo.com

http://www.sergejcetkovic.com/
Tap to rate this tab
# A B C D E F G H I J K L M N O P Q R S T U V W X Y Z