Song name
# A B C D E F G H I J K L M N O P Q R S T U V W X Y Z

Sergey Stepanov - Epic Sax Guy tab

EPIC SAX GUY
For Guitar

Original Song: Run Away
Original Artist: SunStroke Project

Tabbed by: Sami Volk - 'Illegal_Left'
1:14 AM 15/10/2011


This is just one little lick that is played by a (now-famous) Moldovian sax player 
Sergey Stepanov from the band SunStroke

Project. They played this song in a competition where Stepanov performed "epic" dance 
moves while playing this lick.

Here it is for guitar:


||-------------------------------------------------------------------|
||-11\-------11--11-11-9h11--11\------11\-------11--11-11-9-11--11\--|
||-------------------------------------------------------------------|
||-------------------------------------------------------------------|
||-------------------------------------------------------------------|
||-------------------------------------------------------------------|


|---5--------------------------------||
|------11--9-------------------7h9---||
|-------------8-------8--8h10--------||
|------------------------------------||
|------------------------------------||
|------------------------------------||
Tap to rate this tab
# A B C D E F G H I J K L M N O P Q R S T U V W X Y Z