Song name
# A B C D E F G H I J K L M N O P Q R S T U V W X Y Z

Serj Tankian - Praise The Lord And Pass The Ammunition tab

Serj Tankian - Praise The Lord And Pass The Ammunition - Standard Tuning

Tabbed by: Starminn
E-Mail: Robr3rd@aol.com

Firstly, this is my first ever tab, and is done completely by ear, so if some parts seem
be off, please feel absolutely free to e-mail me at the above address for corrections
tips to help make this and future tabs better.

Also, Guitar 1 & 2 aren't actually a lead & rhythm part, but merely to show that the two
different, and how they compare.

NOTICE: This is a very trippy song with many artificial tones as well as real, so I am
doing the main parts. BECAUSE this song is trippy, it is extremely important to listen in
timing. Also, some parts may sound a bit odd, however play along with the song and it 
all be right, though there may be too many slides >.<

Enjoy! ^^


---------------------------> Intro <-------------------------------

 |-Guitar 1
 |(0:00)
e|-----------------------------------------------------------------|
B|-----------------------------------------------------------------|
G|-----------------------------------------------------------------|
D|-----------------------------------------------------------------|
A|-----------------------------------------------------------------|
E|--14\12--12\11--11--11/12--12----14\12--12/14--14/15--15/17--15--|
 |
 |-Guitar 2
 |(0:08)        (0:12)
e|--------------|-----------------|
B|--5h7p5---\4--|--5--5h7p5---\4--|
G|--------------|-----------------|
D|--------------|-----------------|
A|--------------|-----------------|
E|--------------|-----------------|


-------------------------> Breakdown <-----------------------------

 |-Guitar 1
 |(0:35)
e|-----------------------------------------------------------------|
B|-----------------------------------------------------------------|
G|-----------------------------------------------------------------|
D|-----------------------------------------------------------------|
A|-----------------------------------------------------------------|
E|--14\12--12\11--11--11/12--12----14\12--12/14--14/15--15/17--15--|
 |                                                                 |
 |-Guitar 2                                                        |
 |(0:35)                                                           |
e|-----------------------------------------------------------------|
B|-----------------------------------------------------------------|
G|-----------------------------------------------------------------|
D|-----------------------------------------------------------------|
A|-----------------------------------------------------------------|
E|--19-17-19-17-15-14--14/15--15-----19-17-19-17-15-19--19/20--19--|


------------------------> Pre-Chorus <-----------------------------

 |-Guitar 1
 |(0:45)
e|-----------------------------------------------------------------|
B|-----------------------------------------------------------------|
G|-----------------------------------------------------------------|
D|-----------------------------------------------------------------|
A|-----------------------------------------------------------------|
E|--14\12--12\11--11--11/12--12----14\12--12/14--14/15--15/17--15--|
 |                                                                 |
 |-Guitar 2                                                        |
 |(0:45)                                                           |
e|-----------------------------------------------------------------|
B|--5--5---5----------5--5---5------5--5---5-------------5--5---5--|
G|-----------------------------------------------------------------|
D|-----------------------------------------------------------------|
A|-----------------------------------------------------------------|
E|-----------------------------------------------------------------|


--------------------------> Chorus <-------------------------------

 |-Guitar 1 (Actually a simplified version of the bass part up the octave)
 |(1:02)
e|---------------------------------------|
B|---------------------------------------|
G|---------------------------------------|
D|---------------------------------------|
A|--0--0-4-7----0--0-4-7----0-0-4-7-8-7--|
E|---------------------------------------|

e|-----------------------------------------------------|
B|-----------------------------------------------------|
G|-----------------------------------------------------|
D|-----------------------------------------------------|
A|--0--0-4-7----0--0-4-7----0--0-4-7----0-0-0-0--------|
E|-----------------------------------------------2--0--|


 |-Guitar 1
 |(2:05)
e|---------------------------------------|
B|---------------------------------------|
G|---------------------------------------|
D|---------------------------------------|
A|--0--0-4-7----0--0-4-7----0-0-4-7-8-7--|
E|---------------------------------------|

e|-----------------------------------------------------|
B|-----------------------------------------------------|
G|-----------------------------------------------------|
D|-----------------------------------------------------|
A|--0--0-4-7----0--0-4-7----0--0-4-7----0-0-0-0--------|
E|-----------------------------------------------2--0--|
 |
 |-Guitar 2
 |(2:05)
e|-----------------------------------------------------------------|
B|--5--5---5----------5--5---5------5--5---5-------------5--5---5--|
G|-----------------------------------------------------------------|
D|-----------------------------------------------------------------|
A|-----------------------------------------------------------------|
E|-----------------------------------------------------------------|


 From about (2:15) until around (3:44) the song pretains mostly to singing, chaotic
effects, and piano.

Exceptions:
-(2:41) to (2:49)
-(2:50) to (2:59)

 |-Guitar 1
 |(2:41)
e|---------------------------------------|
B|---------------------------------------|
G|---------------------------------------|
D|---------------------------------------|
A|--0--0-4-7----0--0-4-7----0-0-4-7-8-7--|
E|---------------------------------------|

e|-----------------------------------------------------|
B|-----------------------------------------------------|
G|-----------------------------------------------------|
D|-----------------------------------------------------|
A|--0--0-4-7----0--0-4-7----0--0-4-7----0-0-0-0--------|
E|-----------------------------------------------2--0--|


 |-Guitar 1
 |(2:50)
e|-----------------------------------------------------------------|
B|-----------------------------------------------------------------|
G|-----------------------------------------------------------------|
D|-----------------------------------------------------------------|
A|-----------------------------------------------------------------|
E|--14\12--12\11--11--11/12--12----14\12--12/14--14/15--15/17--15--|


 |-Guitar 1
 |(3:44)
e|-----------------------------------------------------------------|
B|-----------------------------------------------------------------|
G|-----------------------------------------------------------------|
D|-----------------------------------------------------------------|
A|-----------------------------------------------------------------|
E|--14\12--12\11--11--11/12--12----14\12--12/14--14/15--15/17--15--|
 |
 |-Guitar 2
 |(3:44)
e|--------------|-----------------|
B|--5h7p5---\4--|--5--5h7p5---\4--|
G|--------------|-----------------|
D|--------------|-----------------|
A|--------------|-----------------|
E|--------------|-----------------|


--------------------> Outro <---------------------

 |-Guitar 1
 |(4:17)
e|------------------------------------------4-----|
B|--4--4-6-4-6----4--4-6-4-6----4--4-6-4-6--------|
G|------------------------------------------------|
D|------------------------------------------------|
A|------------------------------------------------|
E|---------------------------------------------4--|

Strenuously Whispered: "Yeah!"


And there it is! Probably one of the most wierd-awesome songs ever! And, again, please,
more than free to send me some constructive criticism!
Tap to rate this tab
# A B C D E F G H I J K L M N O P Q R S T U V W X Y Z