Guitaretab - guitar tabs
Song name
# A B C D E F G H I J K L M N O P Q R S T U V W X Y Z

Serj Tankian - Feed Us Acoustic tab

Highlighted       Show chord diagrams
-------------------------------------------------------------------------------
			     Feed Us Acoustic - Serj Tankian
-------------------------------------------------------------------------------
Tabbed by: joey_c_13

Tuning: Standard (EADGBe)


I know the actual song uses different tuning but this is the way I like to play it with 
tuning.

Intro:

- The intro is a mixture of chords (not really sure what there names are)
and the riff below.

Chords used: (timing not shown)

E|-------------------------------------------------|
B|-------------------------------------------------|
G|---0------0------0------0------0------0------0---|
D|---9------7------9------7------9------10-----14--|
A|---10-----9------10-----9------10-----12-----15--|
E|-0-0----0-0----0-0----0-0----0-0----0-0----0-0---|

E|-----------------------------------|
B|-----------------------------------|
G|---0------0------0------0------0---|
D|---9------7------9------10-----14--|
A|---10-----9------10-----12-----15--|
E|-0-0----0-0----0-0----0-0----0-0---|

Riff played throughout intro / verse:
[ Tab from: http://www.guitaretab.com/s/serj-tankian/114324.html ]
E|----------------------------------------------|
B|----------------------------------------------|
G|----------------------------------------------|
D|----------------------------------------------|
A|---10---10---10---10---10---9---9---9---9---9-|
E|-0----0----0----0----0----0---0---0---0---0---|

E|---------------------------------------------------|
B|---------------------------------------------------|
G|---------------------------------------------------|
D|--------------------------------------10---10---10-|
A|---10---10---10---10---10---12---12----------------|
E|-0----0----0----0----0----0----0----0----0----0----|


Then the chorus:

    Em             G                Am
You cheat us when you feed us with the lie,
C
Stars look out and,
Em                G                Am
Cheat us when you feed us with the lie,
C
Stars look out,


The bridge:

C                G*
Do you know that life is ending,
F             G*
As we go, the dots connecting,
C                    G*
We had our chance to save the garden,
F               G*
As it dies, our souls will harden,
C                    G*
With these words chastising your conscience
F                         G*
Were breaking through and praying for

transcendence.


- The end of the bridge is like the intro.

Chords
-------------------
Em (022000)
G  (320033)
Am (577xxx)
C  (x355xx)
G* (3554xx)
F  (133xxx)
Related for Feed Us Acoustic tab
Advertisement will be closed in 10 seconds