Song name
# A B C D E F G H I J K L M N O P Q R S T U V W X Y Z

Serj Tankian - Harakiri tab

Hey UG!

This is a tab for the Serj Tankian's brand new song called Harakiri!

The tuning I believe to be Drop C (DAFCGC).

Tempo is about 140.

Intro:
|---------------------------------|---------------------------------|
|---------------------------------|---------------------------------|
|---------------------------------|---------------------------------|
|---------------------------------|---------------------------------|
|---------------------------------|----------------/3---3---3---3---|
|-5---5---5---5---3---3---3---3---|-1---1---1---1-------------------|

Chorus 1:
|---------------------------------|---------------------------------|
|---------------------------------|---------------------------------|
|---------------------------------|---------------------------------|
|---------------------------------|-----------------5---5---5---5---| X 7
|-5---5---5---5---3---3---3---3---|-1---1---1---1---3---3---3---3---|
|-5---5---5---5---3---3---3---3---|-1---1---1---1-------------------|

|---------------------------------|--------|--------|--------|--------|
|---------------------------------|--------|--------|--------|--------|
|---------------------------------|--------|--------|--------|--------|
|---------------------------------|--------|--------|--------|--------|
|-5---5---5---5---3---3---3---3---|-1------|-1------|-3------|-3------|
|-5---5---5---5---3---3---3---3---|-1------|-1------|-3------|-3------|

Verse 1:

|--------|--------|--------|--------|
|--------|--------|--------|--------|
|--------|--------|--------|--------|
|--------|--------|--------|--------|
|-5------|-5------|-5------|-5------|
|-5------|-5------|-5------|-5------|

|--------|--------|--------|--------|--------|--------|--------|--------|
|--------|--------|--------|--------|--------|--------|--------|--------|
|--------|--------|--------|--------|--------|--------|--------|--------|
|--------|--------|--------|--------|--------|--------|-5------|-5------| X 2
|-5------|-5------|-3------|-3------|-1------|-1------|-3------|-3------|
|-5------|-5------|-3------|-3------|-1------|-1------|--------|--------|

|--------|--------|--------|--------|--------|--------|--------|--------|
|--------|--------|--------|--------|--------|--------|--------|--------|
|--------|--------|--------|--------|--------|--------|--------|--------|
|--------|--------|--------|--------|-8------|-5------|--------|--------|
|-8------|-8------|-5------|-5------|-6------|-3------|-5------|-5------|
|-8------|-8------|-5------|-5------|--------|--------|-5------|-5------|

|--------|--------|--------|--------|--------|
|--------|--------|--------|--------|--------|
|--------|--------|--------|--------|--------|
|--------|--------|-8------|-5------|-5------|
|-8------|-8------|-6------|-3------|-3------|
|-8------|-8------|--------|--------|--------|

Verse 2:

|--------|--------|--------|--------|
|--------|--------|--------|--------|
|--------|--------|--------|--------|
|--------|--------|--------|--------|
|-5------|-5------|-5------|-5------|
|-5------|-5------|-5------|-5------|

||-----------------|-----------------|-----------------|-----------------|
||-----------------|-----------------|-----------------|-----------------|
||-----------------|-----------------|-----------------|-----------------|
||-----------------|-----------------|-----------------|-----------------|
||-5-5---5-5-5-5---|-5-5---5-5-5-5---|-3-3---3-3-3-3---|-3-3---3-3-3-3---|
||-5-5---5-5-5-5---|-5-5---5-5-5-5---|-3-3---3-3-3-3---|-3-3---3-3-3-3---|
P.M* *   * * * *     * *   * * * *     * *   * * * *     * *   * * * *

|-----------------|-----------------|-----------------|-----------------||
|-----------------|-----------------|-----------------|-----------------||
|-----------------|-----------------|-----------------|-----------------||
|-----------------|-----------------|-5-5---5-5-5-5---|-5-5---5-5-5-5---|| X2
|-1-1---1-1-1-1---|-1-1---1-1-1-1---|-3-3---3-3-3-3---|-3-3---3-3-3-3---||
|-1-1---1-1-1-1---|-1-1---1-1-1-1---|-----------------|-----------------||
  * *   * * * *     * *   * * * *     * *   * * * *     * *   * * * *

|--------|--------|--------|--------|--------|--------|--------|--------|
|--------|--------|--------|--------|--------|--------|--------|--------|
|--------|--------|--------|--------|--------|--------|--------|--------|
|--------|--------|--------|--------|-8------|-5------|--------|--------|
|-8------|-8------|-5------|-5------|-6------|-3------|-5------|-5------|
|-8------|-8------|-5------|-5------|--------|--------|-5------|-5------|

|--------|--------|--------|--------|--------|
|--------|--------|--------|--------|--------|
|--------|--------|--------|--------|--------|
|--------|--------|-8------|-5------|-5------|
|-8------|-8------|-6------|-3------|-3------|
|-8------|-8------|--------|--------|--------|

Interlude:

|---------------------------------|---------------------------------|
|---------------------------------|---------------------------------|
|---------------------------------|---------------------------------|
|---------------------------------|---------------------------------| X 4
|---------------------------------|----------------/3---3---3---3---|
|-5---5---5---5---3---3---3---3---|-1---1---1---1-------------------|

Chorus 2:

|---------------------------------|---------------------------------|
|---------------------------------|---------------------------------|
|---------------------------------|---------------------------------|
|---------------------------------|-----------------5---5---5---5---| X 7
|-5---5---5---5---3---3---3---3---|-1---1---1---1---3---3---3---3---|
|-5---5---5---5---3---3---3---3---|-1---1---1---1-------------------|

|---------------------------------|---------------------------------|
|---------------------------------|---------------------------------|
|---------------------------------|---------------------------------|
|---------------------------------|---------------------------------|
|-5---5---5---5---3---3---3---3---|-1---1---1---1---1---1---1---1---|
|-5---5---5---5---3---3---3---3---|-1---1---1---1---1---1---1---1---|

|---------------------------------|---------------------------------|
|---------------------------------|---------------------------------|
|---------------------------------|---------------------------------|
|---------------------------------|---------------------------------|
|-1---1---1---1---1---1---1---1---|-3---3---3---3---3---3---3---3---|
|-1---1---1---1---1---1---1---1---|-3---3---3---3---3---3---3---3---|

|---------------------------------|
|---------------------------------|
|---------------------------------|
|---------------------------------|
|-3---3---3---3---3---3---3---3---|
|-3---3---3---3---3---3---3---3---|

Chorus 3:

|---------------------------------|---------------------------------|
|---------------------------------|---------------------------------|
|---------------------------------|---------------------------------|
|---------------------------------|---------------------------------|
|-9---9---9---9---9---9---9---9---|-9---9---9---9---9---9---9---9---|
|-9---9---9---9---9---9---9---9---|-9---9---9---9---9---9---9---9---|

|---------------------------------|---------------------------------|
|---------------------------------|---------------------------------|
|---------------------------------|---------------------------------|
|---------------------------------|---------------------------------|
|-6---6---6---6---6---6---6---6---|-6---6---6---6---6---6---6---6---|
|-6---6---6---6---6---6---6---6---|-6---6---6---6---6---6---6---6---|

|---------------------------------|---------------------------------|
|---------------------------------|---------------------------------|
|---------------------------------|---------------------------------|
|-9---9---9---9---9---9---9---9---|-6---6---6---6---6---6---6---6---|
|-7---7---7---7---7---7---7---7---|-4---4---4---4---4---4---4---4---|
|---------------------------------|---------------------------------|

|---------------------------------|---------------------------------|
|---------------------------------|---------------------------------|
|---------------------------------|---------------------------------|
|---------------------------------|---------------------------------|
|-6---6---6---6---6---6---6---6---|-6---6---6---6---6---6---6---6---|
|-6---6---6---6---6---6---6---6---|-6---6---6---6---6---6---6---6---|

|---------------------------------|---------------------------------|
|---------------------------------|---------------------------------|
|---------------------------------|---------------------------------|
|---------------------------------|---------------------------------|
|-9---9---9---9---9---9---9---9---|-9---9---9---9---9---9---9---9---|
|-9---9---9---9---9---9---9---9---|-9---9---9---9---9---9---9---9---|


|---------------------------------|---------------------------------|
|---------------------------------|---------------------------------|
|---------------------------------|---------------------------------|
|-9---9---9---9---9---9---9---9---|-6---6---6---6---6---6---6---6---|
|-7---7---7---7---7---7---7---7---|-4---4---4---4---4---4---4---4---|
|---------------------------------|---------------------------------|

Chorus 4:

|---------------------------------|---------------------------------|
|---------------------------------|---------------------------------|
|---------------------------------|---------------------------------|
|---------------------------------|---------------------------------|
|-9---9---9---9---9---9---9---9---|-9---9---9---9---9---9---9---9---|
|-9---9---9---9---9---9---9---9---|-9---9---9---9---9---9---9---9---|

|---------------------------------|---------------------------------|
|---------------------------------|---------------------------------|
|---------------------------------|---------------------------------|
|---------------------------------|---------------------------------|
|-6---6---6---6---6---6---6---6---|-6---6---6---6---6---6---6---6---|
|-6---6---6---6---6---6---6---6---|-6---6---6---6---6---6---6---6---|

|---------------------------------|---------------------------------|
|---------------------------------|---------------------------------|
|---------------------------------|---------------------------------|
|-9---9---9---9---9---9---9---9---|-6---6---6---6---6---6---6---6---|
|-7---7---7---7---7---7---7---7---|-4---4---4---4---4---4---4---4---|
|---------------------------------|---------------------------------|

|---------------------------------|---------------------------------|
|---------------------------------|---------------------------------|
|---------------------------------|---------------------------------|
|-9---9---9---9---9---9---9---9---|-6---6---6---6---6---6---6---6---|
|-7---7---7---7---7---7---7---7---|-4---4---4---4---4---4---4---4---|
|---------------------------------|---------------------------------|

|---------------------------------|---------------------------------|
|---------------------------------|---------------------------------|
|---------------------------------|---------------------------------|
|-9---9---9---9---9---9---9---9---|-6---6---6---6---6---6---6---6---|
|-7---7---7---7---7---7---7---7---|-4---4---4---4---4---4---4---4---|
|---------------------------------|---------------------------------|

Outro:

|--------|--------|
|--------|--------|
|--------|--------|
|-6------|--------|
|-4------|-6------|
|--------|-6------|
Tap to rate this tab
 
# A B C D E F G H I J K L M N O P Q R S T U V W X Y Z