Song name
# A B C D E F G H I J K L M N O P Q R S T U V W X Y Z

Serj Tankian - Uneducated Democracy tab

INTRO:

D|-------------------------------------------------------------------|
A|-------------------------------------------------------------------|
F|------9-9-X--4-4--7-7-7--------------------------------------------|
C|------9-9-X--4-4--7-7-7--7-7--7------------------------------------|  X 4
G|------7-7-X--2-2--5-5-5--7-7--7------------------------------------|
C|-------------------------7-7--7------------------------------------|


D|----------------------9--9--X-X--10-10------------------------------|
A|---7-7-X-X-7-7--X-X---10-10-X-X--10-10------------------------------|
F|---7-7-X-X-7-7--X-X---9--9--X-X--11-11------------------------------|
C|---9-9-X-X-9-9--X-X--------------12-12------------------------------|  X 4
G|---9-9-X-X-9-9--X-X--------------12-12------------------------------|
C|--------------------------------------------------------------------|

D|-------------------------------------------------------------------|
A|-------------------------------------------------------------------|
F|-------------------------------------------------------------------|
C|-------------------------------------------------------------------|  X 1
G|-------9------9------9------9\-------------------------------------|
C|--9999---9999---9999---9999----------------------------------------|

D|-------------------------------------------------------------------|
A|-------------------------------------------------------------------|
F|-------------------------7-9-7--10\9-------------------------------|
C|--9-X-9-X-9-X-9-X-99--9--7-9-7--10\9-------------------------------|  X 2
G|--9-X-9-X-9-X-9-X-99--9--5-7-5--8\7--------------------------------|
C|--9-X-9-X-9-X-9-X-99--9--------------------------------------------|

D|-------------------------------------------------------------------|
A|-------------------------------------------------------------------|
F|-----7-9-7--10\9---------------------------------------------------|
C|--9--7-9-7--10\9---------------------------------------------------|  X 4
G|--9--5-7-5--8\7----------------------------------------------------|
C|--9----------------------------------------------------------------|

D|----------------|         D|----------------| 
A|----------------|         A|----------------|
F|--11------------|         F|---10-----14----|
C|--11------------|  X 16   C|---10-----14----|  X 8 (each one)|| X 4(All  
G|--9-------------|         G|---8------12----|                      this
C|----------------|         C|----------------|                      section)



D|-------------------------------------------------------------------|
A|-------------------------------------------------------------------|
F|-----7-9-7--10\9---------------------------------------------------|
C|--9--7-9-7--10\9---------------------------------------------------|  X 4
G|--9--5-7-5--8\7----------------------------------------------------|
C|--9----------------------------------------------------------------|

D|----------------|         D|----------------| 
A|----------------|         A|----------------|
F|--11------------|         F|---10-----14----|
C|--11------------|  X 16   C|---10-----14----| X 8 (each one)|| X 4(All  
G|--9-------------|         G|---8------12----|                     this
C|----------------|         C|----------------|                     section)*

D|----------------------9--9--X-X--10-10------------------------------|
A|---7-7-X-X-7-7--X-X---10-10-X-X--10-10------------------------------|
F|---7-7-X-X-7-7--X-X---9--9--X-X--11-11------------------------------|
C|---9-9-X-X-9-9--X-X--------------12-12------------------------------|  X 4
G|---9-9-X-X-9-9--X-X--------------12-12------------------------------|
C|--------------------------------------------------------------------|

D|---------------------------------------------|
A|---------------------------------------------|
F|---------------------------------------------|
C|--12-10-8-7----12-10-8-7---------------------|  X 4
G|--12-10-8-7----12-10-8-7---------------------|
C|--12-10-8-7----12-10-8-7---------------------|

D|-------------------------------------------|
A|-------------------------------------------|
F|-------------------------------------------|
C|----9---9---9---99----9---9---9---99-------|  X 4
G|-------------------------------------------|
C|--9---9---9---9-----9---9---9---9----------|

D|----------------------------------------------------------------------|
A|----------------------------------------------------------------------|
F|----------------------------------------------------------------------|
C|----------------------------------------------------------------------| X 4
G|--5-5-5-5-5-5-5-5--3-3-3-3-3-3-3-3--5-5-5-5-5-5-5-5--3-3-3-3-3-3-3-3--|
C|--5-5-5-5-5-5-5-5--3-3-3-3-3-3-3-3--5-5-5-5-5-5-5-5--3-3-3-3-3-3-3-3--|

D|---9-99-9-99-9-99-9-99-9----------|
A|---9-99-9-99-9-99-9-99-9----------|
F|----------------------------------|
C|----------------------------------|  X 2
G|----------------------------------|
C|----------------------------------|

D|----------------------------------|
A|----------------------------------|
F|----------------------------------|
C|----------------------------------|  X 2
G|-----10--8-7-5---5-7--------------|
C|---------------7------------------|

D|----------------------------------------------------------------------|
A|----------------------------------------------------------------------|
F|----------------------------------------------------------------------|
C|----------------------------------------------------------------------| X 4
G|--5-5-5-5-5-5-5-5--3-3-3-3-3-3-3-3--5-5-5-5-5-5-5-5--3-3-3-3-3-3-3-3--|
C|--5-5-5-5-5-5-5-5--3-3-3-3-3-3-3-3--5-5-5-5-5-5-5-5--3-3-3-3-3-3-3-3--|

D|-------------------------------------------------------------------|
A|-------------------------------------------------------------------|
F|-------------------------------------------------------------------|
C|-------------------------------------------------------------------|  X 1
G|-------9------9------9------9\-------------------------------------|
C|--9999---9999---9999---9999----------------------------------------|

D|-------------------------------------------------------------------|
A|-------------------------------------------------------------------|
F|-------------------------7-9-7--10\9-------------------------------|
C|--9-X-9-X-9-X-9-X-99--9--7-9-7--10\9-------------------------------|  X 2
G|--9-X-9-X-9-X-9-X-99--9--5-7-5--8\7--------------------------------|
C|--9-X-9-X-9-X-9-X-99--9--------------------------------------------|

D|-------------------------------------------------------------------|
A|-------------------------------------------------------------------|
F|-----7-9-7--10\9---------------------------------------------------|
C|--9--7-9-7--10\9---------------------------------------------------|  X 4
G|--9--5-7-5--8\7----------------------------------------------------|
C|--9----------------------------------------------------------------|

D|----------------|         D|----------------| 
A|----------------|         A|----------------|
F|--11------------|         F|---10-----14----|
C|--11------------|  X 16   C|---10-----14----| X 8 (each one)|| X 4(All  
G|--9-------------|         G|---8------12----|                     this
C|----------------|         C|----------------|                     section)*

D|----------------------9--9--X-X--10-10------------------------------|
A|---7-7-X-X-7-7--X-X---10-10-X-X--10-10------------------------------|
F|---7-7-X-X-7-7--X-X---9--9--X-X--11-11------------------------------|
C|---9-9-X-X-9-9--X-X--------------12-12------------------------------|  X 4
G|---9-9-X-X-9-9--X-X--------------12-12------------------------------|
C|--------------------------------------------------------------------|

D|----------------------7--7--X-X--7-7--------------------------------|
A|---5-5-X-X-5-5--X-X---8--8--X-X--7-7--------------------------------|
F|---5-5-X-X-5-5--X-X---7--7--X-X--8-8--------------------------------|
C|---7-7-X-X-7-7--X-X--------------10-10------------------------------|  X 2
G|---7-7-X-X-7-7--X-X--------------10-10------------------------------|
C|--------------------------------------------------------------------|

D|----------------------9--9--X-X--10-10------------------------------|
A|---7-7-X-X-7-7--X-X---10-10-X-X--10-10------------------------------|
F|---7-7-X-X-7-7--X-X---9--9--X-X--11-11------------------------------|
C|---9-9-X-X-9-9--X-X--------------12-12------------------------------|  X 2
G|---9-9-X-X-9-9--X-X--------------12-12------------------------------|
C|--------------------------------------------------------------------|

D|---------------------------------------------|
A|---------------------------------------------|
F|---------------------------------------------|
C|--12-10-8-7----12-10-8-7---------------------|  X 8
G|--12-10-8-7----12-10-8-7---------------------|
C|--12-10-8-7----12-10-8-7---------------------|

*This section in the last repetition is:

D|----------------|        
A|----------------|        
F|--7--9----------|         
C|--7--9----------|     X 8 each one
G|--5--7----------|        
C|----------------|         


This tab is only for lead guitar.

Please rate and comment guys c:

Serj music <3
Tap to rate this tab
 
# A B C D E F G H I J K L M N O P Q R S T U V W X Y Z