Song name
# A B C D E F G H I J K L M N O P Q R S T U V W X Y Z

Serj Tankian - Sky Is Over tab

My first tab guys =3

you know what to do



Everybody knows,

Everybody knows,

That you cradle the sun, sun

Living in remorse,

Sky is over,

Dont you want to hold me baby disappointed, going crazy.
e|-----1------1------3------3------1------1------3------3-----|
B|---1---1--1---1--1---1--1---1--1---1--1---1--1---1--1---1---|
G|-3------3------3------3------3------3------3------3------3--|
D|------------------------------------------------------------|
A|------------------------------------------------------------|
E|------------------------------------------------------------|


Even though we can't afford
e|----------------------------------------|
B|----------------------------------------|
G|----------------------------------------|
D|------5-5-5-5-5-5-5-5--8-8-8-8-7-7-7-7--|
A|------5-5-5-5-5-5-5-5--6-6-6-6-5-5-5-5--|
E|-/12\-3-3-3-3-3-3-3-3--6-6-6-6-5-5-5-5--|

The sky is over


Even though we can't afford

e|-----------------------------------|
B|-----------------------------------|
G|-----------------------------------|
D|-5-5-5-5-5-5-5-5--8-8-8-8-7-7-7-7--|
A|-5-5-5-5-5-5-5-5--6-6-6-6-5-5-5-5--|
E|-3-3-3-3-3-3-3-3--6-6-6-6-5-5-5-5--|


The sky is over,

I don't want to see you go,

The sky is over

Even though we can't afford

The sky is over.



Behind closed eyes lie

The minds ready to awaken you,

Are you at war with land

And all of its creatures,

Your not-so-gentle persuasion

Has been known to wreck economies

Of countries, of empires, the sky is over,

Dont you want to hold me baby disappointed, going crazy.
e|-----1------1------3------3------1------1------3------3-----|
B|---1---1--1---1--1---1--1---1--1---1--1---1--1---1--1---1---|
G|-3------3------3------3------3------3------3------3------3--|
D|------------------------------------------------------------|
A|------------------------------------------------------------|
E|------------------------------------------------------------|


e|------------------------------|
B|------------------------------|
G|------------------------------|
D|-10--10--10--10--3--3--10--10-|
A|-10--10--10--10--3--3--10--10-|
E|-8---8---8---8---1--1--8---8--|

La la la la la la la
La la la la la la la
La la la la la la la
La la la la la la la
La la la la la la la
La la la la la la la
La la la la la la la
La la la la la la la

Not even from the sun,

e|---------------|
B|---------------|
G|---------------|
D|-8-8-8-8-8-8-8-|
A|-8-8-8-8-8-8-8-|
E|-6-6-6-6-6-6-6-|

(La la la la la la la
La la la la la la la
La la la la la la la)

Not even from the sun,

e|---------------|
B|---------------|
G|---------------|
D|-8-8-8-8-8-8-8-|
A|-8-8-8-8-8-8-8-|
E|-6-6-6-6-6-6-6-|

(La la la la la la la
La la la la la la la
La la la la la la la)

Not even from the sun,

e|------------------------------------|
B|------------------------------------|
G|------------------------------------|
D|-8-8-8-8-8-8-8-10-10-10-10-10-10-10-|
A|-8-8-8-8-8-8-8-10-10-10-10-10-10-10-|
E|-6-6-6-6-6-6-6-8--8--8--8--8--8--8--|

Don't you want me to run,

e|-------------------------------|
B|-------------------------------|
G|-------------------------------|
D|-8-8-8-8-8-8-8-6-6-6-6-7-7-7-7-|
A|-8-8-8-8-8-8-8-6-6-6-6-7-7-7-7-|
E|-6-6-6-6-6-6-6-4-4-4-4-5-5-5-5-|
PM               . . . . . . . . 

Even though you can't afford

e|-6-----6-----6----|
B|---8-----8-----8--|
G|-----7-----7------|
D|------------------|
A|------------------|
E|------------------|

The sky is over,

e|-----------------|
B|-----------------|
G|-----------------|
D|-8-8-8-8-7-7-7-7-|
A|-6-6-6-6-5-5-5-5-|
E|-6-6-6-6-5-5-5-5-|

Even though we can't afford

e|------------------------------------|
B|------------------------------------|
G|------------------------------------|
D|--5-5-5-5-5-5-5-5--8-8-8-8-7-7-7-7--| 
A|--5-5-5-5-5-5-5-5--6-6-6-6-5-5-5-5--|
E|--3-3-3-3-3-3-3-3--6-6-6-6-5-5-5-5--|

The sky is over,

I don't want to see you go,

The sky is over

Even though we can't afford

The sky is over,

I don't want to see you go,

The sky is over

Even though we can't afford

The sky is over,

I don't want to see you go,

The sky is over

Even though we can't afford

The sky is over,
e|-------------------------------------------|
B|-------------------------------------------|
G|-------------------------------------------|
D|-8-8-8-8-8-8-8-7-7-7-7-7-7-7-8-8-8-8-8-8-8-|
A|-6-6-6-6-6-6-6-5-5-5-5-5-5-5-6-6-6-6-6-6-6-|
E|-6-6-6-6-6-6-6-5-5-5-5-5-5-5-6-6-6-6-6-6-6-|


Ends with:
e|---|
B|---|
G|---|
D|-7-|
A|-5-|
E|-5-|


The sky is over us.





| /   slide up
| \   slide down
| PM  Palm mute

Tap to rate this tab
 
# A B C D E F G H I J K L M N O P Q R S T U V W X Y Z