Song name
# A B C D E F G H I J K L M N O P Q R S T U V W X Y Z

Serj Tankian - Unthinking Majority tab

-------------------------------------------------------------------------------
			     UNTHINKING MAJORITY - Serj Tankian 
-------------------------------------------------------------------------------
Tabbed by: jameskr3w
Email: baker3bueno@hotmail.com

Tuning: Drop D

e|---------------------------------------------------------------------------|
B|---------------------------------------------------------------------------|
G|---------------------------------------------------------------------------|
D|-9-9-9-9-9---9-9-9-9-9---9-9-9-9-9---9-9-9-9--7-7-7-7--5-5-5-5-5--5-5-5-5-5|
A|-9-9-9-9-9---9-9-9-9-9---9-9-9-9-9---9-9-9-9--7-7-7-7--5-5-5-5-5--5-5-5-5-5|
D|-9-9-9-9-9---9-9-9-9-9---9-9-9-9-9---9-9-9-9--7-7-7-7--5-5-5-5-5--5-5-5-5-5|

e|---------------------------------------------------------------------------|
B|---------------------------------------------------------------------------|
G|---------------------------------------------------------------------------|
D|-5-5--2-2-2-2-2-2-2--5-5-5-5-5-5-5---9-9-9-9-9---9-9-9-9-9---9-9-9-9-9---9-|
A|-5-5--2-2-2-2-2-2-2--5-5-5-5-5-5-5---9-9-9-9-9---9-9-9-9-9---9-9-9-9-9---9-|
D|-5-5--2-2-2-2-2-2-2--5-5-5-5-5-5-5---9-9-9-9-9---9-9-9-9-9---9-9-9-9-9---9-|

e|---------------------------------------------------------------------------|
B|---------------------------------------------------------------------------|
G|---------------------------------------------------------------------------|
D|-9-9-9--7-7-7-7--5-5-5-5-5--5-5-5-5-5-5-5--2-2-2-2-2-2-2--5-5-5-5-5-5-5----|
A|-9-9-9--7-7-7-7--5-5-5-5-5--5-5-5-5-5-5-5--2-2-2-2-2-2-2--5-5-5-5-5-5-5----|
D|-9-9-9--7-7-7-7--5-5-5-5-5--5-5-5-5-5-5-5--2-2-2-2-2-2-2--5-5-5-5-5-5-5----|

e|---------------------------------------------------------------------------|
B|---------------------------------------------------------------------------|
G|---------------------------------------------------------------------------|
D|-9-9-9-9-9---9-9-9-9-9---9-9-9-9-9---9-9-9-9--7-7-7-7--5-5-5-5-5--5-5-5-5-5|
A|-9-9-9-9-9---9-9-9-9-9---9-9-9-9-9---9-9-9-9--7-7-7-7--5-5-5-5-5--5-5-5-5-5|
D|-9-9-9-9-9---9-9-9-9-9---9-9-9-9-9---9-9-9-9--7-7-7-7--5-5-5-5-5--5-5-5-5-5|

e|---------------------------------------------------------------------------|
B|---------------------------------------------------------------------------|
G|---------------------------------------------------------------------------|
D|-5-5--2-2-2-2-2-2-2--5-5-5-5-5-5-5---9-9-9-9-9---9-9-9-9-9---9-9-9-9-9---9-|
A|-5-5--2-2-2-2-2-2-2--5-5-5-5-5-5-5---9-9-9-9-9---9-9-9-9-9---9-9-9-9-9---9-|
D|-5-5--2-2-2-2-2-2-2--5-5-5-5-5-5-5---9-9-9-9-9---9-9-9-9-9---9-9-9-9-9---9-|

e|---------------------------------------------------------------------------|
B|---------------------------------------------------------------------------|
G|---------------------------------------------------------------------------|
D|-9-9-9--7-7-7-7--5-5-5-5-5--5-5-5-5-5-5-5--2-2-2-2-2-2-2--5-5-5-5-5-5-5----|
A|-9-9-9--7-7-7-7--5-5-5-5-5--5-5-5-5-5-5-5--2-2-2-2-2-2-2--5-5-5-5-5-5-5----|
D|-9-9-9--7-7-7-7--5-5-5-5-5--5-5-5-5-5-5-5--2-2-2-2-2-2-2--5-5-5-5-5-5-5----|

e|---------------------------------------------------------------------------|
B|---------------------------------------------------------------------------|
G|----------1-0--------------------------------------------------------------|
D|---------------3---1-0-1----0-1-3-1-0-1----0-1-3-1-0-1--5-6--3-5--1-3--0-3-|
A|--------3-----------------3--------------3---------------------------------|
D|---------------------------------------------------------------------------|

e|---------------------------------------------------------------------------|
B|-----9-8-------------------------------------------------------------------|
G|---------10---8-7-8------7-8-10-8-7-8-----7-8-10-8-7-8--12-13--10-12--8-10-|
D|--10-----------------10----------------10----------------------------------|
A|---------------------------------------------------------------------------|
D|---------------------------------------------------------------------------|

e|---------------------------------------------------------------------------|
B|---------------------------------------------------------------------------|
G|-7-8-----------------------------------------------------------------------|
D|---------9-9-9-9-9---9-9-9-9-9---9-9-9-9-9--9-9-9-9--7-7-7-7--5-5-5-5-5--5-|
A|---------9-9-9-9-9---9-9-9-9-9---9-9-9-9-9--9-9-9-9--7-7-7-7--5-5-5-5-5--5-|
D|---------9-9-9-9-9---9-9-9-9-9---9-9-9-9-9--9-9-9-9--7-7-7-7--5-5-5-5-5--5-|

e|---------------------------------------------------------------------------|
B|---------------------------------------------------------------------------|
G|---------------------------------------------------------------------------|
D|-5-5-5-5-5-5--2-2-2-2-2-2-2--5-5-5-5-5-5-5---9-9-9-9-9---9-9-9-9-9---9-9-9-|
A|-5-5-5-5-5-5--2-2-2-2-2-2-2--5-5-5-5-5-5-5---9-9-9-9-9---9-9-9-9-9---9-9-9-|
D|-5-5-5-5-5-5--2-2-2-2-2-2-2--5-5-5-5-5-5-5---9-9-9-9-9---9-9-9-9-9---9-9-9-|

e|---------------------------------------------------------------------------|
B|---------------------------------------------------------------------------|
G|---------------------------------------------------------------------------|
D|-9-9--9-9-9-9--7-7-7-7--5-5-5-5-5--5-5-5-5-5-5-5--2-2-2-2-2-2-2--5-5-5-5-5-|
A|-9-9--9-9-9-9--7-7-7-7--5-5-5-5-5--5-5-5-5-5-5-5--2-2-2-2-2-2-2--5-5-5-5-5-|
D|-9-9--9-9-9-9--7-7-7-7--5-5-5-5-5--5-5-5-5-5-5-5--2-2-2-2-2-2-2--5-5-5-5-5-|

e|---------------------------------------------------------------------------|
B|----------1-0--------------------------------------------------------------|
G|---------------3---1-0-1----0-1-3-1-0-1----0-1-3-1-0-1--5-6--3-5--1-3--0-3-|
D|5-5-----3-----------------3--------------3---------------------------------|
A|5-5------------------------------------------------------------------------|
D|5-5------------------------------------------------------------------------|

e|---------------------------------------------------------------------------|
B|-----9-8-------------------------------------------------------------------|
G|---------10---8-7-8------7-8-10-8-7-8-----7-8-10-8-7-8--12-13--10-12--8-10-|
D|--10-----------------10----------------10----------------------------------|
A|---------------------------------------------------------------------------|
D|---------------------------------------------------------------------------|

e|---------------------------------------------------------------------------|
B|---------------------------------------------------------------------------|
G|-7-8-----------------------------------------------------------------------|
D|---------9-9-9-9-9---9-9-9-9-9---9-9-9-9-9--9-9-9-9--7-7-7-7--5-5-5-5-5--5-|
A|---------9-9-9-9-9---9-9-9-9-9---9-9-9-9-9--9-9-9-9--7-7-7-7--5-5-5-5-5--5-|
D|---------9-9-9-9-9---9-9-9-9-9---9-9-9-9-9--9-9-9-9--7-7-7-7--5-5-5-5-5--5-|

e|---------------------------------------------------------------------------|
B|---------------------------------------------------------------------------|
G|---------------------------------------------------------------------------|
D|-5-5-5-5-5-5--2-2-2-2-2-2-2--5-5-5-5-5-5-5---9-9-9-9-9---9-9-9-9-9---9-9-9-|
A|-5-5-5-5-5-5--2-2-2-2-2-2-2--5-5-5-5-5-5-5---9-9-9-9-9---9-9-9-9-9---9-9-9-|
D|-5-5-5-5-5-5--2-2-2-2-2-2-2--5-5-5-5-5-5-5---9-9-9-9-9---9-9-9-9-9---9-9-9-|

e|---------------------------------------------------------------------------|
B|---------------------------------------------------------------------------|
G|---------------------------------------------------------------------------|
D|-9-9--9-9-9-9--7-7-7-7--5-5-5-5-5--5-5-5-5-5-5-5--2-2-2-2-2-2-2--5-5-5-5-5-|
A|-9-9--9-9-9-9--7-7-7-7--5-5-5-5-5--5-5-5-5-5-5-5--2-2-2-2-2-2-2--5-5-5-5-5-|
D|-9-9--9-9-9-9--7-7-7-7--5-5-5-5-5--5-5-5-5-5-5-5--2-2-2-2-2-2-2--5-5-5-5-5-|

e|---------------------------------------------------------------------------|
B|---------------------------------------------------------------------------|
G|---------------------------------------------------------------------------|
D|5-5--9-9-9-9-9---9-9-9-9-9---9-9-9-9-9---9-9-9-9--7-7-7-7--5-5-5-5-5--5-5-5|
A|5-5--9-9-9-9-9---9-9-9-9-9---9-9-9-9-9---9-9-9-9--7-7-7-7--5-5-5-5-5--5-5-5|
D|5-5--9-9-9-9-9---9-9-9-9-9---9-9-9-9-9---9-9-9-9--7-7-7-7--5-5-5-5-5--5-5-5|

e|---------------------------------------------------------------------------|
B|---------------------------------------------------------------------------|
G|---------------------------------------------------------------------------|
D|-5-5-5-5--2-2-2-2-2-2-2--5-5-5-5-5-5-5---9-9-9-9-9---9-9-9-9-9---9-9-9-9-9-|
A|-5-5-5-5--2-2-2-2-2-2-2--5-5-5-5-5-5-5---9-9-9-9-9---9-9-9-9-9---9-9-9-9-9-|
D|-5-5-5-5--2-2-2-2-2-2-2--5-5-5-5-5-5-5---9-9-9-9-9---9-9-9-9-9---9-9-9-9-9-|

e|---------------------------------------------------------------------------|
B|---------------------------------------------------------------------------|
G|---------------------------------------------------------------------------|
D|--9-9-9-9--7-7-7-7--5-5-5-5-5--5-5-5-5-5-5-5--2-2-2-2-2-2-2--5-5-5-5-5-5-5-|
A|--9-9-9-9--7-7-7-7--5-5-5-5-5--5-5-5-5-5-5-5--2-2-2-2-2-2-2--5-5-5-5-5-5-5-|
D|--9-9-9-9--7-7-7-7--5-5-5-5-5--5-5-5-5-5-5-5--2-2-2-2-2-2-2--5-5-5-5-5-5-5-|


e|---------------------------------------------------------------------------|
B|---------------------------------------------------------------------------|
G|---------------------------------------------------------------------------|
D|----3p2-----------3p2--------3p2-----------3p2-------3p2------------3p2----|
A|--2-----2-1-1-2-2-----2----2-----2-1-1-2-2-----2---2-----2-1-1-2-2------2--|
D|---------------------------------------------------------------------------|

e|---------------------------------------------------------------------------|
B|---------------------------------------------------------------------------|
G|---------------------------------------------------------------------------|
D|----3p2-----------3p2--------3p2-----------3p2-------3p2------------3p2----|
A|--2-----2-1-1-2-2-----2----2-----2-1-1-2-2-----2---2-----2-1-1-2-2------2--|
D|---------------------------------------------------------------------------|

e|---------------------------------------------------------------------------|
B|---------------------------------------------------------------------------|
G|---------------------------------------------------------------------------|
D|----3p2-----------3p2--------3p2-----------3p2-------3p2------------3p2----|
A|--2-----2-1-1-2-2-----2----2-----2-1-1-2-2-----2---2-----2-1-1-2-2------2--|
D|---------------------------------------------------------------------------|

e|---------------------------------------------------------------------------|
B|---------------------------------------------------------------------------|
G|---------------------------------------------------------------------------|
D|----3p2-----------3p2--------3p2-----------3p2-------3p2------------3p2----|
A|--2-----2-1-1-2-2-----2----2-----2-1-1-2-2-----2---2-----2-1-1-2-2------2--|
D|---------------------------------------------------------------------------|

e|---------------------------------------------------------------------------|
B|-----9-8-------------------------------------------------------------------|
G|---------10---8-7-8------7-8-10-8-7-8-----7-8-10-8-7-8--12-13--10-12--8-10-|
D|--10-----------------10----------------10----------------------------------|
A|---------------------------------------------------------------------------|
D|---------------------------------------------------------------------------|

e|---------------------------------------------------------------------------|
B|----------9-8--------------------------------------------------------------|
G|-7-8----------10---8-7-8------7-8-10-8-7-8-----7-8-10-8-7-8--12-13--10-12--|
D|-------10-----------------10----------------10-----------------------------|
A|---------------------------------------------------------------------------|
D|---------------------------------------------------------------------------|

e|---------------------------------------------------------------------------|
B|---------------9-8---------------------------------------------------------|
G|8-10--7-8----------10---8-7-8------7-8-10-8-7-8-----7-8-10-8-7-8--12-13--10|
D|------------10-----------------10----------------10------------------------|
A|---------------------------------------------------------------------------|
D|---------------------------------------------------------------------------|

e|---------------------------------------------------------------------------|
B|---------------------------------------------------------------------------|
G|-12--8-10--7-8-------------------------------------------------------------|
D|--------------------3p2-----------3p2-------3p2-----------3p2-------3p2----|
A|------------------2-----2-1-1-2-2-----2---2-----2-1-1-2-2-----2---2-----2-1|
D|---------------------------------------------------------------------------|

e|---------------------------------------------------------------------------|
B|---------------------------------------------------------------------------|
G|---------------------------------------------------------------------------|
D|------3p2-------3p2-----------3p2------9-9-9-9-9---9-9-9-9-9---9-9-9-9-9---|
A|1-2-2-----2---2-----2-1-1-2-2-----2----9-9-9-9-9---9-9-9-9-9---9-9-9-9-9---|
D|---------------------------------------9-9-9-9-9---9-9-9-9-9---9-9-9-9-9---|

e|---------------------------------------------------------------------------|
B|---------------------------------------------------------------------------|
G|---------------------------------------------------------------------------|
D|9-9-9-9--7-7-7-7--5-5-5-5-5--5-5-5-5-5-5-5--2-2-2-2-2-2-2--5-5-5-5-5-5-5---|
A|9-9-9-9--7-7-7-7--5-5-5-5-5--5-5-5-5-5-5-5--2-2-2-2-2-2-2--5-5-5-5-5-5-5---|
D|9-9-9-9--7-7-7-7--5-5-5-5-5--5-5-5-5-5-5-5--2-2-2-2-2-2-2--5-5-5-5-5-5-5---|

e|---------------------------------------------------------------------------|
B|---------------------------------------------------------------------------|
G|---------------------------------------------------------------------------|
D|9-9-9-9-9---9-9-9-9-9---9-9-9-9-9---9-9-9-9--7-7-7-7--5-5-5-5-5--5-5-5-5-5-|
A|9-9-9-9-9---9-9-9-9-9---9-9-9-9-9---9-9-9-9--7-7-7-7--5-5-5-5-5--5-5-5-5-5-|
D|9-9-9-9-9---9-9-9-9-9---9-9-9-9-9---9-9-9-9--7-7-7-7--5-5-5-5-5--5-5-5-5-5-|

e|---------------------------------------------------------------------------|
B|---------------------------------------------------------------------------|
G|---------------------------------------------------------------------------|
D|5-5--2-2-2-2-2-2-2--5-5-5-5-5-5-5---9-9-9-9-9---9-9-9-9-9---9-9-9-9-9---9-9|
A|5-5--2-2-2-2-2-2-2--5-5-5-5-5-5-5---9-9-9-9-9---9-9-9-9-9---9-9-9-9-9---9-9|
D|5-5--2-2-2-2-2-2-2--5-5-5-5-5-5-5---9-9-9-9-9---9-9-9-9-9---9-9-9-9-9---9-9|

e|---------------------------------------------------------------------------|
B|---------------------------------------------------------------------------|
G|---------------------------------------------------------------------------|
D|-9-9--7-7-7-7--5-5-5-5-5--5-5-5-5-5-5-5--2-2-2-2-2-2-2--5-5-5-5-5-5-5---9-9|
A|-9-9--7-7-7-7--5-5-5-5-5--5-5-5-5-5-5-5--2-2-2-2-2-2-2--5-5-5-5-5-5-5---9-9|
D|-9-9--7-7-7-7--5-5-5-5-5--5-5-5-5-5-5-5--2-2-2-2-2-2-2--5-5-5-5-5-5-5---9-9|

e|---------------------------------------------------------------------------|
B|---------------------------------------------------------------------------|
G|---------------------------------------------------------------------------|
D|-9-9-9---9-9-9-9-9---9-9-9-9-9---9-9-9-9--7-7-7-7--5-5-5-5-5--5-5-5-5-5-5-5|
A|-9-9-9---9-9-9-9-9---9-9-9-9-9---9-9-9-9--7-7-7-7--5-5-5-5-5--5-5-5-5-5-5-5|
D|-9-9-9---9-9-9-9-9---9-9-9-9-9---9-9-9-9--7-7-7-7--5-5-5-5-5--5-5-5-5-5-5-5|

e|---------------------------------------------------------------------------|
B|---------------------------------------------------------------------------|
G|---------------------------------------------------------------------------|
D|--2-2-2-2-2-2-2--5-5-5-5-5-5-5-------3p2-----------3p2-------3p2-----------|
A|--2-2-2-2-2-2-2--5-5-5-5-5-5-5-----2-----2-1-1-2-2-----2---2-----2-1-1-2-2-|
D|--2-2-2-2-2-2-2--5-5-5-5-5-5-5---------------------------------------------|
                                                   harmonics on the 7
e|---------------------------------------------------------------------------|
B|---------------------------------------------------------------------------|
G|---------------------------------------------------------------------------|
D|3p2-------3p2-----------3p2-------3p2-----------3p2-------7----------------|
A|----2---2-----2-1-1-2-2-----2---2-----2-1-1-2-2-----2----------------------|
D|---------------------------------------------------------------------------|






| /  slide up
| \  slide down
| h  hammer-on
| p  pull-off
| ~  vibrato
| +  harmonic
| x  Mute note
===============================================================================
Tap to rate this tab
 
# A B C D E F G H I J K L M N O P Q R S T U V W X Y Z