Guitaretab - guitar tabs
Song name
# A B C D E F G H I J K L M N O P Q R S T U V W X Y Z

Serj Tankian - Lie Lie Lie tab

Artist: Serj Tankian
Title: LIE LIE LIE
Tuning: Half Step Down


Gtr.1 Ė Electric - Right Speaker
Gtr.2 Ė Electric - Left Speaker


-Intro-
 Gtr.1 (heavy dist.)
|-------------(h4)--------4--|
|----------------------------|
|----------------------------|
|----------(h4)--(h4)----4-4-|
|----------------------------|
|-(h2)~-------------(h2)---2-|

  Gtr.1 (light dist.)
||-------------------------------------||
||-------------------------------------||
||-------------------------------------||
||---4---4----4---4----2---2----9---9--||
||-------------------------------9-9-9-||
||-22-2-2-2-22-2-2-2-00-0-0-0/77--7----||
| Gtr.2 (clean)                         |
||------h4p2-----h4p2-----h4p2-----h4p2||
||-------------------------------------||
||-------------------------------------||
||-------------------------------------||
||-------------------------------------||
||-------------------------------------||

  Gtr.1 (heavy dist.)
||-----------------------||      |-----------------------------|
||-----------------------||      |-----------------------------|
||-----------------------||      |-----------------------------|
||-44442222/999911111111-||      |-44442222/999999991111111111-|
||-44442222/999911111111-||      |-44442222/9999999911111111x--|
||-22220000/77779-9-9-9--||      |-22220000/777777779-9-9-9-9--|
| Gtr.2 (heavy dist.)[3x] | [3x] |                             |
||-----------------------||      |-----------------------------|
||-----------------------||      |-----------------------------|
||-----------------------||      |-----------------------------|
||-44442222/999911111111-||      |-44442222/999999991111111111-|
||-44442222/999911111111-||      |-44442222/9999999911111111x--|
||-22220000/77779-9-9-9--||      |-22220000/777777779-9-9-9-9--|
Lalalalalalalala lie lie lie
Lalalalalalalala lie lie lie
Lalalalalalalala lie lie lie
Lalalalalalalala lie lie lie

-Verse 1-
  Gtr.1 (light dist.)       A                      B
||---------------------------|----------------------| A [1x]|
||---------------------------|----------------------| B [1x]|
||---------------------------|----------------------| A [1x]|
||---4-----2------9-----11---|---4-----2----99-9-11-| B [1x]|
||--4-----2------9-9--11--11-|--4-----2-----99-9-11-|       |
||-2--2--0--0--/7----9-------|-2--2--0--0--/77-7-9--|       |
| Gtr.2 (clean)             A                      B|       |[2x]
||-2245----------------------|-2245---------1010-9--| A [1x]|
||---------------------------|----------------------| B [1x]|
||---------------------------|----------------------| A [1x]|
||---------------------------|----------------------| B [1x]|
||---------------------------|----------------------|       |
||---------------------------|----------------------|       |
1. My baby, my baby, Let me know Because you love me, you love me Let me go
2. And youíre my lover, you pay me Twice my size and on you knees you lay in my thighs,

-Pre-Chorus-
 Gtr.1 (heavy dist.)
|--------------------|-------------------|
|--------------------|-------------------|
|--------------------|-------------------|
|-7-7-7-7-76-6-6-6-6-|-44444444/99999999-|
|-5-5-5-5-54-4-4-4-4-|-44444444/99999999-|
|--------------------|-22222222/77777777-|
|Gtr.2 (clean)                           |
|-2----------1-------|-29-------10-----9-|
|--------------------|-------------------|
|--------------------|-------------------|
|--------------------|-44444444/99999999-|
|--------------------|-44444444/99999999-|
|--------------------|-22222222/77777777-|
Take my hand and letís end it all, She broke her little bones On the boulders below,

 Gtr.1
|--------------------|
|--------------------|
|--------------------|
|-7-7-7-7-76-6-6-6-6-|
|-5-5-5-5-54-4-4-4-4-|
|--------------------|
|Gtr.2               |
|-2----------1-------|
|--------------------|
|--------------------|
|--------------------|
|--------------------|
|--------------------|
Take my hand and letís end it all,

-Verse 2-
 Gtr.1 (light dist.)       A                      B
|---------------------------|------------------------| A [1x]
|---------------------------|------------------------| B [1x]
|---------------------------|------------------------| A [1x]
|---4-----2------9-----11---|---4-----2----99-9-11---| B [1x]
|--4-----2------9-9--11--11-|--4-----2-----99-9-11---|
|-2--2--0--0--/7----9-------|-2--2--0--0--/77-7-9----|
|Gtr.2 (clean)             A                      B|
|-2245----------------------|-522245-------1010-9----| A [1x]
|---------------------------|------------------------| B [1x]
|---------------------------|------------------------| A [1x]
|---------------------------|------------------------| B [1x]
|---------------------------|------------------------|
|---------------------------|------------------------|
1. My baby, my baby Let me go, And if you love me, you love me, Let me go,

 Gtr.1                     A                      B
|---------------------------|------------------------| A [1x]
|---------------------------|------------------------| B [1x]
|---------------------------|------------------------| A [1x]
|---4-----2------9-----11---|---4-----2----99-9-11---| B [1x]
|--4-----2------9-9--11--11-|--4-----2-----99-9-11---|
|-2--2--0--0--/7----9-------|-2--2--0--0--/77-7-9----|
|Gtr.2                     A                      B|
|-2245--5754542-------------|-2245---------1010-9----| A [1x]
|---------------------------|------------------------| B [1x]
|---------------------------|------------------------| A [1x]
|---------------------------|------------------------| B [1x]
|---------------------------|------------------------|
|---------------------------|------------------------|
2. Cause Iím you brother, your brother, Have some pride, And now you love me, you love 
Then die tonight
[ Tab from: http://www.guitaretab.com/s/serj-tankian/99820.html ]
-Pre-Chorus-
 Gtr.1 (heavy dist.)
|--------------------|-------------------|
|--------------------|-------------------|
|--------------------|-------------------|
|-7-7-7-7-76-6-6-6-6-|-44444444/99999999-|
|-5-5-5-5-54-4-4-4-4-|-44444444/99999999-|
|--------------------|-22222222/77777777-|
|Gtr.2 (clean)                           |
|-2----------1-------|-29-------10-----9-|
|--------------------|-------------------|
|--------------------|-------------------|
|--------------------|-------------------|
|--------------------|-------------------|
|--------------------|-------------------|
Take my hand and letís end it all, She broke her little bones On the boulders below,

 Gtr.1
|--------------------|-------------------|------------|
|--------------------|-------------------|------------|
|--------------------|-------------------|------------|
|-7-7-7-7-76-6-6-6-6-|-44444444/99999999-|-1212121211-|
|-5-5-5-5-54-4-4-4-4-|-44444444/99999999-|-1212121211-|
|--------------------|-22222222/77777777-|-101010109--|
|Gtr.2                                   |
|-2----------1-------|-29-------10-----9-|-2-------1--|
|--------------------|-------------------|------------|
|--------------------|-------------------|------------|
|--------------------|-------------------|------------|
|--------------------|-------------------|------------|
|--------------------|-------------------|------------|
Take my hand and letís end it all, Broker her little bones On the boulders below, And 
she fell I delightfully said,

-Chorus-
  Gtr.1 (light dist.)
||---------------------------||
||---------------------------||
||---------------------------||
||---4-----2------9-----11---||
||--4-----2------9-9--11--11-||
||-2--2--0--0--/7----9-------||
| Gtr.2 (clean) skip 1st time | [4x]
||-4--2----------------------||
||---------------------------||
||---------------------------||
||---------------------------||
||---------------------------||
||---------------------------||
Lalalalalalalala lie lie lie
Lalalalalalalala lie lie lie
Lalalalalalalala lie lie lie
Lalalalalalalala lie lie lie

  Gtr.1 (heavy dist.)
||-----------------------|                                            |
||-----------------------|                                            |
||-----------------------|                                            |
||-44442222/999911111111-|                                            |
||-44442222/999911111111-|                                            |
||-22220000/77779-9-9-9--|                                            |
| Gtr.2 (heavy dist.)   A                           B                 | [8x]
||-22224444-55554444-----|-22224444-101010109999-----| A [1x], B [1x] |
||-----------------------|---------------------------| A [1x], B [1x] |
||-----------------------|---------------------------| A [1x], B [1x] |
||-----------------------|---------------------------| A [1x], B [1x] |
||-----------------------|---------------------------|                |
||-----------------------|---------------------------|                |
Lalalalalalalala lie lie lie
Lalalalalalalala lie lie lie
Lalalalalalalala lie lie lie
Lalalalalalalala lie lie lie
Lalalalalalalala lie lie lie
Lalalalalalalala lie lie lie
Lalalalalalalala lie lie lie
Lalalalalalalala lie lie lie

-Pre-Chorus-
 Gtr.1 (heavy dist.)
|--------------------|-------------------|
|--------------------|-------------------|
|--------------------|-------------------|
|-7-7-7-7-76-6-6-6-6-|-44444444/99999999-|
|-5-5-5-5-54-4-4-4-4-|-44444444/99999999-|
|--------------------|-22222222/77777777-|
|Gtr.2 (clean)                           |
|-2----------1-------|-29-------10-----9-|
|--------------------|-------------------|
|--------------------|-------------------|
|--------------------|-------------------|
|--------------------|-------------------|
|--------------------|-------------------|
She took my hand and I let her go She broke her little bones On the boulders below,

 Gtr.1
|--------------------|-------------------|------------|
|--------------------|-------------------|------------|
|--------------------|-------------------|------------|
|-7-7-7-7-76-6-6-6-6-|-44444444/99999999-|-1212121211-|
|-5-5-5-5-54-4-4-4-4-|-44444444/99999999-|-1212121211-|
|--------------------|-22222222/77777777-|-101010109--|
|Gtr.2                                   |
|-2----------1-------|-29-------10-----9-|-2-------1--|
|--------------------|-------------------|------------|
|--------------------|-------------------|------------|
|--------------------|-------------------|------------|
|--------------------|-------------------|------------|
|--------------------|-------------------|------------|
Took my hand and she ended it all, Broke her little bones on the boulders below And 
she fell, I smiled.

-Chorus-
 Gtr.1 (light dist.)
|---------------------------|
|---------------------------|
|---------------------------| [8x]
|---4-----2------9-----11---|
|--4-----2------9-9--11--11-|
|-2--2--0--0--/7----9-------|
Lalalalalalalala lie lie lie
Lalalalalalalala lie lie lie
Lalalalalalalala lie lie lie
Lalalalalalalala lie lie lie
Lalalalalalalala lie lie lie
Lalalalalalalala lie lie lie
Lalalalalalalala lie lie lie
Lalalalalalalala lie lie lie

-Outro-
 Gtr.1 (light dist.)
|-2~--|
|-x---|
|-x---|
|-4~--|
|-4~--|
|-2~--|


-Lyrics-
Lalalalalalalala lie lie lie
Lalalalalalalala lie lie lie
Lalalalalalalala lie lie lie
Lalalalalalalala lie lie lie

My baby, my baby,
Let me know
Because you love me, you love me
Let me go
And youíre my lover, you pay me
Twice my size
and on you knees
you lay in my thighs,

Take my hand and letís end it all,
She broke her little bones
On the boulders below,
Take my hand and letís end it all,

My baby, my baby
Let me go,
And if you love me, you love me,
Let me go,
Cause Iím you brother, your brother,
Have some pride,
And now you love me, you love me
Then die tonight

Take my hand and letís end it all,
She broke her little bones
On the boulders below,
Take my hand and letís end it all,
Broker her little bones
On the boulders below,
And while she fell I delightfully said,

Lalalalalalalala lie lie lie
Lalalalalalalala lie lie lie
Lalalalalalalala lie lie lie
Lalalalalalalala lie lie lie

She took my hand and I let her go
She broke her little bones
On the boulders below,
Took my hand and she ended it all,
Broke her little bones on
the boulders below
And while she fell, I smiled.

Lalalalalalalala lie lie lie
Lalalalalalalala lie lie lie
Lalalalalalalala lie lie lie
Lalalalalalalala lie lie lie
Related for Lie Lie Lie tab