Song name
# A B C D E F G H I J K L M N O P Q R S T U V W X Y Z

Seru Giran - Alicia En El Pais tab

Help us improve GuitareTab! Take a short survey!
INTRO [A-A2]

A          A2-A-A2   A   A7+  D  	 E/D  A   A2  E 
Quien sabe A_licia este pais, no estuvo hecho por que si
A      A2   A  A2   A   A7+  D       E/D  
Te vas a   ir, vas a salir, pero te quedas
  C#7sus4       C#7   F#m	     F#   
?donde     mas  vas a ir? y es que aqui


sabes, 
D-----------------------------------------4------------
G--4------------3-------------1------------------------
B-----4------4-------4-----4-----4-----4-------4---4---
e--------2--------------2-----------2------------2-----
  que el trabalenguas,        tra_____ba___lenguas;

D------------------------------------------------------
G--5---------4----------2-----------0------------------
B----5----5-----5---5------5---5-------5---5-----------
e-------3---------3----------3-----------3-------------

 que el asesino,        te ase______sina; 


(CON ARPEGIOS)

F          G    C      G/B     Am
y es mucho para ti

G			   Am	G  F
se acabo ese juego que te hacia feliz


   A7sus4
???Uhhh!!!

    Asus4					     Dm/A
No cuentes lo que viste en los jardines, el sue?o acabo

	    F/A    D/A           A
Ya no hay morsas,       ni tortugas


Un r?o de cabezas aplastadas por el mismo pie  }
Juegan cricket, bajo la luna		       }  CON LOS ACORDES DE 'NO CUENTES...'


    E/G#		 A9            E 
Estamos en la tierra de nadie, pero es mia

    E/G#		 A9                   E 
los inocentes son los culpables, dice su se?oria;

el rey de espadas.

							    ---\
								\	
No cuentes que hay detras de aquel espejo o no tendras poder,	I
ni abogados, ni testigos					I
							I SE REPITEN LOS ACORDES 
Enciende los candiles que los brujos piensan en volver		I 'NO CUENTES LO QUE VIST
a nublarnos, el camino					I HASTA '...EL REY DE
							I ESPADAS
estamos en la tierra de todos, en la vida			I
sobre el pasado y sobre el futuro				I
ruina sobre ruina, querida Alicia				I
								         						   
E-----------------------}				    
A-----------------------}
D---2-2---2-2---2-5-7---} <-- Con este riff de base se hace el solo.
G---2-2---2-2---2-5-7---}
B---0-0---0-0---0-3-5---}
e-------3-----3---------}

SE REPITE EL PRINCIPIO (DESDE 'QUIEN SABE ALICIA...' HASTA '...ES MUCHO PARA TI')

G
se acabo
se acabo ese
se acabo ese juego
			    Am   G   F 		
se acabo ese juego que te hacia fe__liz

-----------------------------------------------------------------------------------------
ACORDES:
  A    A2    A7+    D    E/D     C#7sus4    C#7    F#m    F#     F    G    C  
E---------------------------------------------------2------2-----1----3------ 
A-0----0-----0-------------------4-----------4------4------4-----3----2----3-
D-2----2-----2------0----0-------6-----------6------4------4-----3----0----2-
G-2----2-----1------2----4-------4-----------4------2------3-----2----0----0-
B-2----0-----2------3----5-------7-----------6------2------2-----1----0----1-
e-0----0-----0------2----4-------4-----------4------2------2-----1----3----0-

  G/B     Am     Asus4    Dm/A      F/A        D/A     E/G#    A9     E 
E-------------------------------------------------------4-------5-----0------ 
A--2------0-------0--------0---------0---------0----------------7-----2------
D--0------2-------2--------0---------3---------0--------2-------7-----2------
G--0------2-------2--------2---------2---------2--------4-------6-----1------
B--3------1-------3--------3---------1---------3--------0-------0-----0------
e--3------0-------0--------1---------1---------2--------0-------0-----0------

Related for Alicia En El Pais tab