Song name
# A B C D E F G H I J K L M N O P Q R S T U V W X Y Z

Servant - Beautiful Thing tab

-------------------------------------------------------------------------------
			     Beautiful Thing - The Servant
-------------------------------------------------------------------------------
Tabbed by: Guitarchitect
Email: bcmverry@gmail.com

Tuning: E A D G B e (Standard)

e|-------------------------------------------------------------------------|
B|------3-----3-----3-----3-----3----3-----3-----3-----3-----3-----3-----3-|
G|----2-----2-----2-----2-----2----2-----2-----2-----2-----2-----2-----2---|
D|--0-----0----------------------------------------------------------------|
A|--------------1-----1-----3-----3----------------1-----1-----------------|
E|-------------------------------------3-----3-----------------3-----3-----|

e|---------------------------|
B|------3-----3-----1-----1--|
G|----2-----2-----2-----2----|       REPEAT 4 TIMES
D|---------------------------|
A|--4-----4-----3-----3------|
E|---------------------------|


The Servant is a new band out of the UK. I have never heard of them till one of my 
gave me there new cd. This song (Beautiful Thing) is probably the best song on the cd
along Cells and Liquefy. You probably wont find any more tabs for them because they are
so new, thats why I chose to Tab this song. You can find out more about The Servant on
their http://www.theservant.co.uk/


-Guitarchitect

| /  slide up
| \  slide down
| h  hammer-on
| p  pull-off
| ~  vibrato
| +  harmonic
| x  Mute note
===============================================================================
Tap to rate this tab
 
# A B C D E F G H I J K L M N O P Q R S T U V W X Y Z