Song name
# A B C D E F G H I J K L M N O P Q R S T U V W X Y Z

Servotron - Theme For An Ultimate And Inevitable Victory tab




*0 (Background vocal melody):
e|--------------------|--------------------|--------------------|--------------------|
B|--------------------|-----------8/10-\8--|--------------------|-----------8/10-\8--|
G|--(7)---------------|--------------------|--7-----------------|--------------------|


*1 (Intro/Interludes):
e|-17---17---17---17---17---17---17---17---|-17---17---17---17---17---17---17---17---|
B|---15---15---15---15---15---15---15---15-|---15---15---15---15---15---15---15---15-|
G|-----------------------------------------|-----------------------------------------|
D|-----------------------------------------|-----------------------------------------|
A|-----------------------------------------|-----------------------------------------|
E|-----------------------------------------|-----------------------------------------|


*2 (Refrain):
e|--------------------|--------------------|--------------------|--------------------|
B|--------------------|--------------------|--------------------|--------------------|
G|--------------------|--------------------|--------------------|--------------------|
D|--0-----------4--5--|--7-----------------|--------------4--5--|--7-----------------|
A|-----------7--------|--------------------|--5--------7--------|--------------------|
E|--------------------|------5-5-----------|--------------------|------5-5-----------|

e|--------------------|--------------------|--------------------|--------------------|
B|--------------------|--------------------|--------------------|--------------------|
G|--------------------|--------------------|--------------------|--------------------|
D|--5--------5--4-----|--5------7-5--4-----|--------------4--5--|--7-----------------|
A|-----------------7--|-----------------7--|--5--------7--------|------0-0-----------|
E|--------------------|--------------------|--------------------|--------------------|


*3 (Outro):
e|-----------------------------------------|-----------------------------------------|
B|--5----5----5----5----5----5----5----5---|-----------------------------------------|
G|----7----7----7----7----7----7----7----7-|--4----4----4----4----4----4----4----4---|
D|-----------------------------------------|----7----7----7----7----7----7----7----7-|
A|-----------------------------------------|-----------------------------------------|
E|-----------------------------------------|-----------------------------------------|

e|-----------------------------------------|-----------------------------------------|
B|--5----5----5----5----5----5----5----5---|/10---10---10---10---10---10---10---10---|
G|----7----7----7----7----7----7----7----7-|----7----7----7----7----7----7----7----7-|
D|-----------------------------------------|-----------------------------------------|
A|-----------------------------------------|-----------------------------------------|
E|-----------------------------------------|-----------------------------------------|

e|-----------------------------------------|-----------------------------------------|
B|-10---10---10---10---10---10---10---10---|-10---10---10---10---10---10---10--------|
G|----7----7----7----7----7----7----7----7-|----7----7----7----7----7----7-----------|
D|-----------------------------------------|-----------------------------------------|
A|-----------------------------------------|-----------------------------------------|
E|-----------------------------------------|-----------------------------------------|
Tap to rate this tab
# A B C D E F G H I J K L M N O P Q R S T U V W X Y Z