Song name
# A B C D E F G H I J K L M N O P Q R S T U V W X Y Z

Seryn - We Will All Be Changed tab

Hey guys-

Pretty sure its correct.
Just the intro and verses.
Just a little something to get you started.
Great band. Check them out.

-------------------------------------------------------------------------------
			     We Will All Be Changed - Seryn
-------------------------------------------------------------------------------
Tabbed by: Ethan Bennett
Email: ebennet7@utk.edu

Tuning: Drop D, Capo 8

e|-----------------------------------------------------------------------------|
B|-----------------------------------------------------------------------------|
G|----------------------------------------------------2p0----------------------|
D|-------0-2p0----------0------------0-2p0---------0---------------------------|
A|---0h2-------0----0h2---5p4---0h2-------0---0h2------------------------------|
D|-0--------------0------------0-------------0---------------------------------|

e|-----------------------------------------------------------------------------|
B|-----------------------------------------------------------------------------|
G|-----------------------------------------------------------------------------|
D|-------0-2p0----------0------------0-2p0---------4p0-------------------------|
A|---0h2-------0----0h2---5p4---0h2-------0---0h2------0-----------------------|
D|-0--------------0------------5-------------5---------------------------------|

e|-----------------------------------------------------------------------------|
B|-----------------------------------------------------------------------------|
G|-----------------------------------------------------------------------------|
D|-------0-2p0----------4s7p0--------------------------------------------------|
A|---0h2-------0----0h2--------------------------------------------------------|
D|-5--------------5------------------------------------------------------------|

Just repeat this for the first little bit.
Tap to rate this tab
# A B C D E F G H I J K L M N O P Q R S T U V W X Y Z