Song name
# A B C D E F G H I J K L M N O P Q R S T U V W X Y Z

Sesa - Extreme tab

Extreme by SESA guitar tabs and bass


|-4--4--4--4--5--5--5---5--5-----------------|
|-5--5--5--5--5--5--5---5--5-----------------|
|-4--4--4--4--4--4--4---4--4--x--x--x--x-----|
|-----------------------------x--x--x--x-----|
|-----------------------------x--x--x--x-----|
|--------------------------------------------|

Intro (in Rhythm always E)
|--------------------------------------------|
|--------------------------------------------|
|--------------------------------------1-----|
|-6-6-4--4-4--7-7-6--6-4--6-6-4--4-4---2-----|
|-x-x-x--x-x--x-x-x--x-x--x-x-x--x-x---2-----|
|-4-4-2--2-2--5-5-4--4-2--4-4-2--2-2---0-----|

BASS                            LR----|
|----------------------------------9-------|
|------------7-7-6-6-4-----------9---9-----|
|-7-7-9--9-9-----------11-11-9-9-------7~--|
|------------------------------------------|


Verse
  E    A    C#m  B
|-0----0----4-----------------|
|-0----2----5----7---8h9p8----|
|-1----2----6----8--------9p7-|
|-2---------6----9------------|
|-2---------------------------|
|-----------------------------|

Chorus:
     A,E - B,C#m 2x G#m - A - F#m - A,F#m

Adlib:
     C#m - E - F#m (repeat too many times) last C#m - A - B

|-------------------|
|-/9-p7---7---------|
|-------9---9p8\6~~-|
|-------------------|
|-------------------|
|-------------------|

|-9--9--9--7b~------|
|-9--9--9-----------|
|-------------------|
|-------------------|
|-------------------|
|-------------------|

|14-14-14-14-14-14b-|
|-------------------|
|-------------------|
|-------------------|
|-------------------|
|-------------------|

|-14-14-12b~-12p11-9~
|-------------------|
|-------------------|
|-------------------|
|-------------------|
|-------------------|

rap
  C#m
in BASS
|--------------------------------------------|
|------------2h4-----------------------------|
|-4--4--4--4-------4--4--4--4-7p6\-----------|
|-.--.--.----------.--.--.-------------------|


Before chorus
C#m.C#m.

|-------------------|
|-------------------|
|-6p4h6-------------|
|-------6~--7~~~----|
|-------------------|
|-------------------|

Outro
 A,E - B,C#m 3x
 A,E - B,E,C#m

LEgends
 x - Deadstring/s
 LR - Let ring
 h - hammer-on
 p - pull off
 /\ - slidings
 ~ - vibrato
 b - bend
 . - staccato

-------------------------------------

Thank you for using my tab , i hope u enjoy :) God Bless!
comment for any question, feedback or corrections
and please rate .


http://www.sesamusic.com/
Tap to rate this tab
# A B C D E F G H I J K L M N O P Q R S T U V W X Y Z