Guitaretab - guitar tabs
Song name
# A B C D E F G H I J K L M N O P Q R S T U V W X Y Z

Session Road - Song For You tab

-------------------------------------------------------------------------
SONG FOR YOU Ė Alexi Murdoch
-------------------------------------------------------------------------
Tabbed by: Kengus

Here's one with a bit of finger picking. The picking is sort of half-
muted, don't let the notes ring too long. The intro and the verses follow
the same pattern. The trickiest part is perhaps the interlude thing before
the outroish part. Have fun.

Standard tuning

INTRO
   E                                Amaj7*
e|------------------------------------------------------------------|
B|------------------------------------------------------------------|
G|-----1-----1---1-----1-----1---1------1-----1---1-----1-----1---1-|  x2
D|---2-----2---------2-----2----------2-----2---------2-----2-------|
A|----------------------------------0-----0-----0---0-----0-----0---|
E|-0-----0-----0---0-----0-----0------------------------------------|

VERSES (continue the same pattern throughout the verses as well)
   E                                Amaj7*
e|------------------------------------------------------------------|
B|------------------------------------------------------------------|
G|-----1-----1---1-----1-----1---1------1-----1---1-----1-----1---1-| 
D|---2-----2---------2-----2----------2-----2---------2-----2-------|
A|----------------------------------0-----0-----0---0-----0-----0---|
E|-0-----0-----0---0-----0-----0------------------------------------|

CHORUS
   C#m             E/B              Amaj7*
e|------------------------------------------------------------------|
B|------------------------------------------------------------------|
G|-----1-----1---1-----1-----1---1------1-----1---1-----1-----1---1-|  x2
D|---2-----2---------2-----2----------2-----2---------2-----2-------|
A|-4-----4-----4---2-----2-----2----0-----0-----0---0-----0-----0---|
E|------------------------------------------------------------------|
   C#m             E/B             EMb5/A#         Amaj7*
e|------------------------------------------------------------------|
B|------------------------------------------------------------------|
G|-----1-----1---1-----1-----1---1-----1-----1---1-----1-----1---1--|
D|---2-----2---------2-----2---------2-----2---------2-----2--------|
A|-4-----4-----4---2-----2-----2---1-----1-----1---0-----0-----0----|
E|------------------------------------------------------------------|

e|---------------------------------|
B|---------------------------------|
G|-----1-----1---1-----1-----1---1-| 
D|---2-----2---------2-----2-------|
A|-0-----0-----0---0-----0-----0---|
E|---------------------------------|

VERSE1
E                              Amaj7*                       E
  So today I wrote a song for you, cause a day can get so long
                                 Amaj7*
And I know itís hard to make it through
                                 E     Amaj7*
When you say thereís something wrong

VERSE2
E                           Amaj7*                                  E
   So Iím trying to put it right, cause I want to love you with my heart
                             Amaj7*
All this trying has made me tight
                                 E      Amaj7*
And I donít know even where to start
                   E   Amaj7*
Maybe thatís a start

VERSE3
E                                Amaj7*
  Before you know itís a simple game
                                             E
That you play filling up your head with rain
                                          Amaj7*
And you know youíve been hiding from your pain
                                      E   Amaj7*
In the way, in the way you say your name

CHORUS
              C#m             E/B          Amaj7*
And I see you,    hiding your face in your hands
C#m     E/B             Amaj7*
    Flying so you wonít land
C#m            E/B         EMb5/A#   Amaj7*
    You think no one understands

No one understands
[ Tab from: http://www.guitaretab.com/s/session-road/147167.html ]
INTERLUDE (repeat intro)
E  Amaj7*  E  Amaj7*

VERSE4
E                                                Amaj7*
  So you hunch your shoulders and you shake your head
                                     E
And your throat is aching but you swear
                                   Amaj7*
No one hurts you, nothing could be sad
                                   E   Amaj7*
Anyway youíre not here enough to care

VERSE5
E                                       Amaj7*
  And youíre so tired you donít sleep at night
                             E
As your heart is trying to mend
                                    Amaj7*
You keep it quiet but you think you might
                      E   Amaj7*
Disappear before the end

VERSE6
E                                  Amaj7*                      E
  And itís strange that you cannot find any strength to even try
                               Amaj7*
To find a voice to speak your mind
                                   E  Amaj7*
When you do, all you wanna do is cry
                        E  Amaj7*
Well maybe you should cry

CHORUS
              C#m             E/B          Amaj7*
And I see you     hiding your face in your hands
C#m            E/B       Amaj7*
    Talking Ďbout far-away lands
C#m            E/B        EMb5/A#   Amaj7*
    You think no one understands

Listen to my hands

INTERLUDE/SOLO
   E                                Amaj7*
e|----------------------------------------------------------------------|
B|---------------------------0------------------------------------------|
G|----------------------------------------------------------------------|
D|-----6-----7---6-----4---------4------4-----6---7---6-----4-----4-----|
A|---7-----7---------7-----7----------7-----7-------------7-----7-------|
E|-0-----0-----0---0-----0-----0----5-----5-----5---5---5-----5---------|
   E                                Amaj7*
e|----------------------------------------------------------------------|
B|----------------------------------------------------------------------|
G|----------------------------------------------------------------------|
D|-----4-----6---7---6-----4-----4------4-----4---4-----4-----4---4-----|
A|---7-----7-------------7-----7------7-----7---------7-----7-----------|
E|-0-----0-----0---0---0-----0------5-----5-----5---5-----5-----5-------|

OUTRO
   Bsus4                            A6omit3
e|------------------------------------------------------------------|
B|------------------------------------------------------------------|
G|------------------------------------------------------------------|  x4
D|-----4-----4---4-----4-----4---4------4-----4---4-----4-----4---4-|
A|---7-----7---------7-----7----------7-----7---------7-----7-------|
E|-7-----7-----7---7-----7-----7----5-----5-----5---5-----5-----5---|
   Esus2                            A6omit3
e|------------------------------------------------------------------|
B|------------------------------------------------------------------|
G|------------------------------------------------------------------|  x3
D|-----4-----4---4-----4-----4---4------4-----4---4-----4-----4---4-|
A|---7-----7---------7-----7----------7-----7---------7-----7-------|
E|-0-----0-----0---0-----0-----0----5-----5-----5---5-----5-----5---|
    E
e|---------------------------|
B|---------------------------|
G|---------------------------|
D|--2------------------------|
A|--2------------------------|
E|--0------------------------|

OUTRO with lyrics
   Bsus4       A6omit3  Bsus4       A6omit3
And all of this life,   moves around you
Bsus4                 A6omit3  Bsus4           A6omit3
      For all that you climb,  youíre standing still
               Esus2  A6omit3
You are moving too
               Esus2  A6omit3
You are moving too
               Esus2  A6omit3
You are moving too
                 E
I will move with you.

=========================================================================
Comment, rate, appreciate!
Related for Song For You tab