Song name
# A B C D E F G H I J K L M N O P Q R S T U V W X Y Z

Session Road - Kailan chords

Highlighted       Show chord diagrams
Kailan 
By Session Road
Transcribed By Dave Javier

Intro:
G#m - B - E - B (2x)

   G#m       B        E        B
E|-----|  |-----|  |-----|  |-----|
B|--12-|  |--12-|  |--12-|  |--12-|
G|--11-|  |--11-|  |--11-|  |--11-|
D|--9--|  |--9--|  |--9--|  |--9--|
A|--11-|  |-----|  |-----|  |-----|
E|-----|  |-----|  |--0--|  |-----|


Guitar: Tremolo
      G#m       B        E        B
E|--------------------------------------------|
B|--------------------------------------------|
G|-11---11---8----8----9---9----8---8---------|
D|---9--------9---------9--------9------------|
A|----11-----------------7--------------------|
E|--------------7-----------------7----6--4~--|


Verse:
G#m    B             E
   Paraiso kong nakatago
     B            /Bb
Sa ilalim ng Unan
G#m       B              E         B
   Mga panaginip na nakapako sa buwan

G#m          B         E    
   Sa pag pikit naaalala ka
B
Tama nga ba?
G#m         B               E         A
   Sa pagtawid ko sanay kasama ka



Refrain:
     G#m       B
Nais kong Lumayo
     E          B
Sa mga aninong ito
     G#m      B        E
Lumipad, Mangarap ng isang umaga



Chorus:
   B                       A
Kasama kang naglalakad sa lilim ng mga puno
 G#m                        E
Hawak ko ang iyong kamay sanay di na matapos to
   B                         A
Hayaan mong maghilom ang mga sugat na gawa ko
  G#m                       E 
Asahan mong naroon ako sa ilalim din ng unan mo
    B     A   G#m   E 
Kailan kaya Muli
    B     A   G#m   E 
Kailan kaya Muli


Verse 2: (Verse 1 Chords)
Minsan nangako kang di lilisan
Biglang Natabunan
Nagkalito ko sa magsasakang daan


-----------------------------------------------------------
Comments/Suggestions?

Enjoy!
Tap to rate this tab
# A B C D E F G H I J K L M N O P Q R S T U V W X Y Z