Song name
# A B C D E F G H I J K L M N O P Q R S T U V W X Y Z

Session Road - Sana Naman tab

Help us improve GuitareTab! Take a short survey!
Sana Naman
Session Road

Intro:
   G		   Am		  C9		  Am
e|---------------|-----7--------|-----10--------|-----7--------|
B|-7-8-10-8-(2x)-|-7-8---8-(2x)-|-7-8----8-(2x)-|-7-8---8-(2x)-|
G|---------------|--------------|---------------|--------------|
D|---------------|--------------|---------------|--------------|
A|---------------|--------------|---------------|--------------|
E|---------------|--------------|---------------|--------------|

riff 1: before Refrain
e|---------------|
B|---------------|
G|---------------|
D|---------------|
A|----0-2-0-0-2--|
E|-0-3-----3-0---|

riff 2: before Chorus
e|---------------|
B|---------------|
G|---------------|
D|---------------|
A|-5-7-9-10------|
E|---------------|

Verse 1: G Am C9 Am
Heto, nag-aaway na naman tayo
Namo-mroblema, napapahiya
Minsan, pinalalampas ko na lang
Kahit nasasaktan, paano na lang

Refrain: Em Am Em C9
Ayoko na ng kunwarian
Nakakailang
Nakakpagod pag-usapan
'La ring pupuntahan

Chorus: G Am Bm C9
Sana naman
Maibalik ang nakaraan
At nang matutunan
Na 'wag kag iwanan
Sana naman
Maibalik ang nakaraan
Nang 'di s'ya masayang
At sana ako'y pakinggan

Verse 2: G Am C9 Am
Heto, binabalewala mo lang ako
Nagmamakaawa, ako'y nagpapang-unawa
Pero, kahit na ang labo mo
Aking papatunayan na tanging ikaw lang

Chorus 2: G Am Bm C9
Sana (sana naman) (2x)
Sana naman, sana
Sana (sana naman) (2x)
Sana naman, sana

tabbed by: Antonin Deala
e-mail: antonindeala@yahoo.com

Hubby Aerese, I love you!
Related for Sana Naman tab