Song name
# A B C D E F G H I J K L M N O P Q R S T U V W X Y Z

Sesto Sento - Human Nation tab

Listen to the music, the guitar plays solo a few seconds after the begining, then, find the rythm


e|---5-------------|
B|---5-------------| 
G|---7-------------|
D|---7-------------|
A|---6-------------|
E|---5-------------|


e|---3-------------|
B|---3-------------| 
G|---5-------------|
D|---5-------------|
A|---5-------------|
E|---3-------------|


e|---3-------------|
B|---5-------------| 
G|---5-------------|
D|---4-------------|
A|---3-------------|
E|---3-------------|
Tap to rate this tab
# A B C D E F G H I J K L M N O P Q R S T U V W X Y Z