Song name
# A B C D E F G H I J K L M N O P Q R S T U V W X Y Z

Set Fire To Flames - Fading Lights Are Fadingreign Rebuilder Tail Out tab

-----------------------------------------------------------------------------
Fading Lights are Fading.../Reign Rebuilder [Tail Out] - Set Fire to Flames
-----------------------------------------------------------------------------
Tabbed by: Ian B.

Tuning: Drop C (C-A-D-G-B-e)

This tab also covers the first song on this album, "'I Will Be True...' (From the Lips 
of Lying Dying Wonder Body #1)/Reign Rebuilder [Head]" with only minor changes.
Bass part:
e|---------------------------------------------------------------------------|
B|---------------------------------------------------------------------------|
G|---------------------------------------------------------------------------|
D|---------------------------------------------------------------------------|
A|-4--4-4-------4-4----------------------------------------------------------|
C|--------0-0----------0-0---------------------------------------------------|

Guitar/Strings:
e|------------------------------------------------------------------------|
B|-9--6--7p6-4--2-9--6--7p6-4--2------------------------------------------|
G|---------------------------------3-3-5-1--------------------------------| x3
D|---------------------------------------------3--------------------------|
A|-----------------------------------------------4------------------------|
C|------------------------------------------------------------------------|

e|---------------------------------------------------------------------------|
B|---------------------------------------------------------------------------|
G|-3--5/1----3--5/1----3--5/1----3--4----------------------------------------|
D|------------------------------------4--------------------------------------|
A|---------------------------------------------------------------------------|
C|---------------------------------------------------------------------------|



************************************

| /   slide up
| \   slide down
| h   hammer-on
| p   pull-off
| ~   vibrato
| +   harmonic
| x   Mute note
| b   Bend
| pb  Pre-bend
| br  Bend release
| pbr Pre-bend release
| brb Bend release bend

************************************
Band website: http://www.alien8recordings.com/artists/set-fire-to-flames
Tap to rate this tab
# A B C D E F G H I J K L M N O P Q R S T U V W X Y Z