Song name
# A B C D E F G H I J K L M N O P Q R S T U V W X Y Z

Set It Off - Missing You tab

http://www.setitoffband.com/
http://www.youtube.com/watch?v=KYm2gTOu-7A

Tuning: Half a step down

Just the basic chord structure of the song, enjoy :)

Verse
E|-------------------------------|
B|-------------------------------|
G|-----4------4--------4-----4---|
D|---2------2---2----2---1-2---2-| x10
A|-4-----0--------2-----(6)------|
E|-------------------------------|

Pre-Chorus
E|------------------------------------|
B|------------------------------------|
G|-----1--------1--------1------------|
D|---2---2----2---2----2---2----2---1-|
A|-4--------0--------4--------2---2---|
E|------------------------------------|

Chorus
E|-0--0--0--0--|
B|-0--0--0--0--|
G|-1--4--2--2--|
D|-2--4--2--2--|
A|-2--2--0--0--|
E|-0-----------|

Verse
E|-----------------------|
B|-----------------------|
G|-----4------4----4--4--|
D|---2------2---2--2--1--|
A|-4-----0---------2--2--|
E|-----------------------|

(presuming its this, i believe it is)
E|-------------|
B|-------------|
G|-4--4--4--4--|
D|-2--2--2--2--|
A|-4--2--0--2--|
E|-------------|

Pre-Chorus
E|------------------------------------|
B|------------------------------------|
G|-----1--------1--------1------------|
D|---2---2----2---2----2---2----2---1-|
A|-4--------0--------4--------2---2---|
E|------------------------------------|

Chorus
E|-0--0--0--0--|
B|-0--0--0--0--|
G|-1--4--2--2--|
D|-2--4--2--2--|
A|-2--2--0--0--|
E|-0-----------|

Bridge A (not sure about this section)
E|------------------------------------|
B|------------------------------------|
G|------------------------------------|
D|-2-(x8)-4-(x6)-1-(x2)-2-(x8)-1-(x8)-|
A|-4------2------2------0------2------|
E|------------------------------------|
pm.....................................


Bridge B
E|-----------------------|---------------------|
B|-----------------------|---------------------|
G|-2-2-2-2--2-2-2-2--9-4-|-2-2-2-2--2-2-2-2--4-|
D|-2-2-2-2--2-2-2-2--9-4-|-2-2-2-2--2-2-2-2--4-|
A|-0-0-0-0--0-0-0-0--7-2-|-0-0-0-0--0-0-0-0--2-|
E|-----------------------|---------------------|

E|-----------------------|---------------------|
B|-----------------------|---------------------|
G|-6-6-6-6--6-6-6-6--6-6-|-6-6-6-6--6-6-6-6--4-|
D|-6-6-6-6--6-6-6-6--6-6-|-6-6-6-6--6-6-6-6--4-|
A|-4-4-4-4--4-4-4-4--4-4-|-4-4-4-4--4-4-4-4--2-|
E|-----------------------|---------------------|

E|-----------------------|---------------------|---------|
B|-----------------------|---------------------|---------|
G|-2-2-2-2--2-2-2-2--9-4-|-2-2-2-2--2-2-2-2--4-|-6-------|
D|-2-2-2-2--2-2-2-2--9-4-|-2-2-2-2--2-2-2-2--4-|-6-(x16)-|
A|-0-0-0-0--0-0-0-0--7-2-|-0-0-0-0--0-0-0-0--2-|-4-------|
E|-----------------------|---------------------|---------|

CHORUS:
E|-0--0--0--0--|
B|-0--0--0--0--|
G|-1--4--2--2--|
D|-2--4--2--2--|
A|-2--2--0--0--|
E|-0-----------|

End
E|-----------------------|
B|-----------------------|
G|-----4------4----4--4--|
D|---2------2---2--2--1--|
A|-4-----0---------2--2--|
E|-----------------------|
Tap to rate this tab
 
# A B C D E F G H I J K L M N O P Q R S T U V W X Y Z