Song name
# A B C D E F G H I J K L M N O P Q R S T U V W X Y Z

Set It Off - I Think Its Arrogance tab

This is the tab for the intro of Set It Off's awesome song I Think It's Arrogance, but I
guess you already know. However, I'm quite sure this is correct, and I think the same
chords are used for the verses (7-3-0-5). Unfortunately this is all I can tab out, since 
I'm not very good. Hope it's useful! ;)


e|-----------------------------------|
B|-----------------------------------|
G|-----------------------------------|
D|--0-0-0-7-7-7-0-0-0-7-7-7-0-0-7-7--|
A|--0-0-0-7-7-7-0-0-0-7-7-7-0-0-7-7--|
D|--0-0-0-7-7-7-0-0-0-7-7-7-0-0-7-7--|

e|-----------------------------------|
B|-----------------------------------|
G|-----------------------------------|
D|--3-3-3-5-5-5-3-3-3-5-5-5-3-3-5-5--|
A|--3-3-3-5-5-5-3-3-3-5-5-5-3-3-5-5--|
D|--3-3-3-5-5-5-3-3-3-5-5-5-3-3-5-5--|
Tap to rate this tab
# A B C D E F G H I J K L M N O P Q R S T U V W X Y Z