Song name
# A B C D E F G H I J K L M N O P Q R S T U V W X Y Z

Set It Off - Nightmare tab

If anyone could help with the outro solo that would be awesome :)


INTRO (part 1)

Electric 1
Violin
E|----------------------------|
B|----------------------------|
G|----------------------------|
D|----------11-13-14-13-11-13-|
A|-11-11-14-------------------|
D|----------------------------|

INTRO (part 2)

Electric 1
Violin
E|----------------------------|
B|----------------------------|
G|----------------------------|
D|----------11-13-14-13-11-13-|
A|-11-11-14-------------------|
D|----------------------------|

Electric 2

E|----------------------|
B|-------16-17-16-15-16-|
G|-13-16----------------|
D|----------------------|
A|----------------------|
D|----------------------|

INTRO (part 3)

Electric 1
Violin
E|----------------------------|
B|----------------------------|
G|----------------------------|
D|----------11-13-14-13-11-13-|
A|-11-11-14-------------------|
D|----------------------------|

Electric 2

E|----------------------|
B|-------16-17-16-15-16-|
G|-13-16----------------|
D|----------------------|
A|----------------------|
D|----------------------|

Electric 3

E|-----------------------|
B|----16-12-14-11-12-9-8-|
G|-13--------------------|
D|-----------------------|
A|-----------------------|
D|-----------------------|

INTRO (part 4)

Electric 1

E|-------|
B|-------|
G|-13-16-|
D|-x--x--|
A|-11-14-|
D|-------|

Electric 2

E|---------|
B|---------|
G|---------|
D|-6-9-2-4-|
A|-6-9-2-4-|
D|-6-9-2-4-|

VERSE (part 1)

Electric 1

E|---------------|
B|-9-7-x4--------|
G|--------9-8-x4-|
D|---------------|
A|---------------|
D|---------------|

VERSE (part 2)

Electric 1

E|---------------|
B|-9-7-x4--------|
G|--------9-8-x4-|
D|---------------|
A|---------------|
D|---------------|

Electric 2

E|-----------------|
B|-----------------|
G|-----------------|
D|-----------------|
A|-11-9-x4--7-6-x4-|
D|-----------------|

PRE-CHORUS

Electric 1+2

E|-----------------------|
B|-----------------------|
G|-----------------------|
D|-2-4----2-4-1-4--2-4-1-|
A|-2-4----2-4-1-4--2-4-1-|
D|-2-4----2-4-1-4--2-4-1-|

CHORUS

Electric 1

E|------------|
B|------------|
G|-13-16--9-8-|
D|-x--x---x-x-|
A|-11-14--7-6-|
D|------------|

Electric 2

E|---------|
B|---------|
G|---------|
D|-6-9-2-1-|
A|-6-9-2-1-|
D|-6-9-2-1-|

POST

Electric 1

E|-------------------------------------------|
B|-------------------14\12-14-16-16h17r16-14-|
G|-13h15h16r15-15h16-------------------------|
D|-------------------------------------------|
A|-------------------------------------------|
D|-------------------------------------------|

--------------------------------------|
--------------------14\12-16-17-16-14-|
--13h15h16r15-15h16-------------------|
--------------------------------------|
--------------------------------------|
--------------------------------------|

Electric 2

E|---------|
B|---------|
G|---------|
D|-6-9-2-1-|
A|-6-9-2-1-|
D|-6-9-2-1-|

VERSE (part 1)

Electric 1
Violin
E|-------|
B|-------|
G|-16-15-|
D|-x--x--|
A|-14-13-|
D|-------|

Electric 2
(palm mute)
E|---|
B|---|
G|---|
D|-6-|
A|-6-|
D|-6-|

VERSE (part 2)

Electric 2

E|---------------|
B|---------------|
G|---------------|
D|---------------|
A|---------------|
D|-6-8-9-6-4-8-6-|

PRE-CHORUS

Electric 2

E|---------|
B|---------|
G|---------|
D|-6-4-2-5-|
A|-6-4-2-5-|
D|-6-4-2-5-|

CHORUS

BRIDGE (part 1)

Electric 1+2

E|-----------------|
B|-----------------|
G|-----------------|
D|-6-5-14-13-14-13-|
A|-6-5-14-13-14-13-|
D|-6-5-14-13-14-13-|

BRIDGE (part 2)

Electric 1+2

E|----------------|
B|----------------|
G|----------------|
D|-6-5-13-11-14-6-|
A|-6-5-13-11-14-6-|
D|-6-5-13-11-14-6-|

CHORUS

OUTRO WITH SOLO
Tap to rate this tab
# A B C D E F G H I J K L M N O P Q R S T U V W X Y Z