Song name
# A B C D E F G H I J K L M N O P Q R S T U V W X Y Z

Set It Off - Horrible Kids tab

-----------------------------------------------------------------
     Horrible Kids - Set It Off
-----------------------------------------------------------------
Tabbed by: StarrGuitarist
Email: Starrguitarist@gmail.com

Tuning: Drop D ebgdaD

Verse 1 
e|---------------------------------------------------------------|
B|---------------------------------------------------------------|
G|-------------------------    ----------------------------------|
D|--9----5----2----4------- X2 ----------------------------------|
A|--9----5----2----4-------    ----------------------------------|
D|--9----5----2----4---------------------------------------------|
PM: .    .    .    .

e|---------------------------------------------------------------|
B|---------------------------------------------------------------|
G|-------------------------    ----------------------------------|
D|--9----5----2----4------- X2 ----------------------------------|
A|--9----5----2----4-------    ----------------------------------|
D|--9----5----2----4---------------------------------------------|

Chorus
e|---------------------------------------------------------------|
B|---------------------------------------------------------------|
G|------------------------------------------------------    -----|
D|--9-9--9-9-9--5-5--5-5-5--7-7--7-7-7--4-4---4-4-4----- X2 -----|
A|--9-9--9-9-9--5-5--5-5-5--7-7--7-7-7--4-4---4-4-4-----    -----|
D|--9-9--9-9-9--5-5--5-5-5--7-7--7-7-7--4-4---4-4-4--------------|

PostChorus
e|---------------------------------------------------------------|
B|---------------------------------------------------------------|
G|--4-4--7-7--6-7--4-4--7-7--9-6--4-4--7-7-6-7--4-4--77-9-9-11---|
D|---------------------------------------------------------------|
A|---------------------------------------------------------------|
D|---------------------------------------------------------------|

Verse 2
e|---------------------------------------------------------------|
B|---------------------------------------------------------------|
G|---------------------------------------------------------------|
D|--9----5----2----4---------------------------------------------|
A|--9----5----2----4---------------------------------------------|
D|--9----5----2----4---------------------------------------------|
 PM .    .    .    .

e|---------------------------------------------------------------|
B|---------------------------------------------------------------|
G|---------------------------------------------------------------|
D|--9----5----2----4---------------------------------------------|
A|--9----5----2----4---------------------------------------------|
D|--9----5----2----4---------------------------------------------|

PreChorus
e|--------------------------------------------------------------------|
B|--------------------------------------------------------------------|
G|------------7-7--7-7-----------------------------7-7-7-7------------|
D|-5-5--5-5--7-7--7-7--7-7--7-7--7-7--9-7--5-5-5--7-7-7-7-8-8-8-8-8-8-|
A|-5-5--5-5--5-5--5-5--7-7--7-7--7-7--9-7--5-5-5--5-5-5-5-8-8-8-8-8-8-|
D|-5-5--5-5------------7-7--7-7--7-7--9-7--5-5-5----------8-8-8-8-8-8-|

Chorus
e|---------------------------------------------------------------|
B|---------------------------------------------------------------|
G|------------------------------------------------------    -----|
D|--9-9--9-9-9--5-5--5-5-5--7-7--7-7-7--4-4---4-4-4----- X2 -----|
A|--9-9--9-9-9--5-5--5-5-5--7-7--7-7-7--4-4---4-4-4-----    -----|
D|--9-9--9-9-9--5-5--5-5-5--7-7--7-7-7--4-4---4-4-4--------------|

Interlude 
e|---------------------------------------------------------------|
B|---------------------------------------------------------------|
G|---------------------------------------------------------------|
D|--9----5----2----4---------------------------------------------|
A|--9----5----2----4---------------------------------------------|
D|--9----5----2----4---------------------------------------------|

Bridge
e|---------------------------------------------------------------|
B|---------------------------------------------------------------|
G|--9--9----4-------6-------8-------9-------10--------11---------|
D|--9--9----4-------6-------8-------9-------10--------11---------|
A|--9--9----2-------4-------6-------7-------8---------9----------|
D|---------------------------------------------------------------|
PM:       .              .        .       .       .         .

Chorus
e|---------------------------------------------------------------|
B|---------------------------------------------------------------|
G|------------------------------------------------------    -----|
D|--9-9--9-9-9--5-5--5-5-5--7-7--7-7-7--4-4---4-4-4----- X2 -----|
A|--9-9--9-9-9--5-5--5-5-5--7-7--7-7-7--4-4---4-4-4-----    -----|
D|--9-9--9-9-9--5-5--5-5-5--7-7--7-7-7--4-4---4-4-4--------------|

Interlude
e|---------------------------------------------------------------|
B|---------------------------------------------------------------|
G|---------------------------------------------------------------|
D|--9----5----2----4----9----------------------------------------|
A|--9----5----2----4----9----------------------------------------|
D|--9----5----2----4----9----------------------------------------|

| /  slide up
| \  slide down
| h  hammer-on
| p  pull-off
| ~  vibrato
| +  harmonic
| x  Mute note
Tap to rate this tab
# A B C D E F G H I J K L M N O P Q R S T U V W X Y Z