Song name
# A B C D E F G H I J K L M N O P Q R S T U V W X Y Z

Set Your Goals - Echoes tab

-------------------------------------------------------------------------------
			     SONG NAME - Band Name
-------------------------------------------------------------------------------
Tabbed by:
Email:

Tuning: drop d

e|---------------------------------------------------------------------------|
B|---------------------------------------------------------------------------|
G|---------------------------------------------------------------------------|
D|10------------666--10------------666-888-68--10-----------666--12----------|
A|10------------666--10------------666-888-68--10-----------666--12----------|
E|1010101010----666--1010101010----666-888-68--10101010101--666--1212121212--|
    ..........         ..........                 .........        .......

e|---------------------------------------------------------------------------|
B|---------------------------------------------------------------------------|
G|---------------------------------------------------------------------------|
D|8-----68-------------------------------------------------------------------|
A|8-----68-------------------------------------------------------------------|
E|88888-68-------------------------------------------------------------------|
   ....

that's the intro!!

the rest of the song is basically the same chords except there's a bar chord 1 or how ever you say it.
i'll be nice and like..give you the order and what not

VERSE!! x2
e|---------------------------------------------------------------------------|
B|---------------------------------------------------------------------------|
G|---------------------------------------------------------------------------|
D|6-10-8---6-12-8------------------------------------------------------------|
A|6-10-8---6-12-8------------------------------------------------------------|
D6-10-8---6-12-8-------------------------------------------------------------|


CHORUS THING

e|---------------------------------------------------------------------------|
B|---------------------------------------------------------------------------|
G|---------------------------------------------------------------------------|
D|1010--6666666--1010--666666688111------------------------------------------|
A|1010--6666666--1010--666666688111------------------------------------------|
D1010--6666666--1010--666666688111-------------------------------------------|

Versex1
"nobody ever warned you"
e|
B|
G|
D|6-66666
A|6-66666
D6-66666
    ......

and..then the "breathe in part" is the same as the verse except like..not strummed 
then it's the chorus part again til the "da da" part then for the "da da" part it's the same 
the chorus except instead of the 1 bar chord thing for the last part it's 12.
Tap to rate this tab
 
# A B C D E F G H I J K L M N O P Q R S T U V W X Y Z