Song name
# A B C D E F G H I J K L M N O P Q R S T U V W X Y Z

Set Your Goals - With Hoffman Lenses We Will See The Truth tab

-------------------------------------------------------------------------------
			     With Hoffman Lenses We Will See The Truth - Set Your Goals
-------------------------------------------------------------------------------
Tabbed by: Joseph K.- jkim2049
Site: http://www.myspace.com/takeasalttablet

Tuning: Drop D

e|--------------------------------------------------------------------|
B|-----------------------6--------------------------------------------|
G|---------------------6--6-------------------------------------------|
D|-8-8-8-8--4-4--4-4-4------4-4-4-4-4/6-6-6-6-6--8-8-8-8--4-4---------|
A|-8-8-8-8--4-4--4-4-4------4-4-4-4-4/6-6-6-6-6--8-8-8-8--4-4---------|
D|-8-8-8-8--4-4--4-4-4------4-4-4-4-4/6-6-6-6-6--8-8-8-8--4-4---------|
                 . . .

e|-----------------------------------------------|
B|-----------------------6-----------------------|
G|---------------------6--6----------------------|
D|-8-8-8-8--4-4--4-4-4------4-4-4-4-4/6-6-6-6-6--|
A|-8-8-8-8--4-4--4-4-4------4-4-4-4-4/6-6-6-6-6--|
D|-8-8-8-8--4-4--4-4-4------4-4-4-4-4/6-6-6-6-6--|   
                 . . .

e|------------------------------------------------|
B|---------------------7p6------------------------|
G|------------------------6--6-6-6-6-6------------|
D|-8-8-8-8--4-4--4-4-4-------6-6-6-6-6-6-6-6-6-6--|
A|-8-8-8-8--4-4--4-4-4-------4-4-4-4-4-6-6-6-6-6--|
D|-8-8-8-8--4-4--4-4-4-----------------6-6-6-6-6--|   
                 . . .

e|-----------------------------------------------|
B|-----------------------6-----------------------|
G|---------------------6--6----------------------|
D|-8-8-8-8--4-4--4-4-4------4-4-4-4-4/6-6-6-6-6--|
A|-8-8-8-8--4-4--4-4-4------4-4-4-4-4/6-6-6-6-6--|
D|-8-8-8-8--4-4--4-4-4------4-4-4-4-4/6-6-6-6-6--|   
                 . . .


e|---------------------------------------------------------------------|
B|---------------------7p6---------------------------------------------|
G|------------------------6--6-6-6-6-6---------------------------------|
D|-8-8-8-8--4-4--4-4-4-------6-6-6-6-6-6-6-6-6-6--8-8-8-8--4-4---------|
A|-8-8-8-8--4-4--4-4-4-------4-4-4-4-4-6-6-6-6-6--8-8-8-8--4-4---------|
D|-8-8-8-8--4-4--4-4-4-----------------6-6-6-6-6--8-8-8-8--4-4---------|   
                 . . .
Tap to rate this tab
 
# A B C D E F G H I J K L M N O P Q R S T U V W X Y Z