Set Your Goals - Gaia Bleeds Make Way For Man tab

Tuning: CGCFAD
Tabbed By IanP.
Some credit to: some unregistered kid :D
Some riffs or tempos etc are sketchy but 
listen to the song and u'll get it. 
Have fun with this I <3 this song and band.

Intro/Main Riff
|-----------------------|
|-----------------------|
|-----------------------|
|-6-6-6666-6-6---3-999--|
|-8-8-8888-8-8---3-999--|
|-----....-------3-999--|

Main Riff-(Second Guitar comes in) 
|-------------------------------|
|-------------------------------|
|-10-10-xxxx-10-10-x-10/111111--| (10's and 11's)
|-------------------------------|
|-------------------------------|
|-------------------------------|

(Pause) OH!

Chorus
|------------------------------|
|------------------------------|
|------------------------------|
|-3~-333~-333~-333~-333-/-666--|
|-3~-333~-333~-333~-333-/-666--|
|-3~-333~-333~-333~-333-/-666--|


Verse
|-----------------------|
|-----------------------|
|-----------------------|
|-6-6-6666-6-6---3-999--|
|-8-8-8888-8-8---3-999--|
|-----....-------3-999--|


Chorus
|------------------------------|
|------------------------------|
|------------------------------|
|-3~-333~-333~-333~-333-/-666--|
|-3~-333~-333~-333~-333-/-666--|
|-3~-333~-333~-333~-333-/-666--|


Verse
|-----------------------|
|-----------------------|
|-----------------------|
|-6-6-6666-6-6---3-999--|
|-8-8-8888-8-8---3-999--|
|-----....-------3-999--|

There's higher riff over the verse riff but i couldn't figure it out :(

|----------------------------|
|----------------------------|
|----------------------------|
|-3-3-3333-3-3------3-3-3-3--|
|-3-3-3333-3-3------3-3-3-3--|
|-3-3-3333-3-3------3-3-3-3--|
      ....          . . . .

Chorus
|------------------------------|
|------------------------------|
|------------------------------|
|-3~-333~-333~-333~-333-/-666--|
|-3~-333~-333~-333~-333-/-666--|
|-3~-333~-333~-333~-333-/-666--|


AND EVERYTHING CHANGES!....(everything changes)
Bridge/Breakdown
|------------------------------------------|
|------------------------------------------|
|------------------------------------------|
|------------------------------------------|
|------7~7~-----7~7/8~8~-----7~7~-----7~8--|(bend up on the 7's and 8's)
|-3~3~------3~3~---------3~3~------3~3~----|

|---------------------------------------------|
|---------------------------------------------|
|------9~9~-----9~9/10~10~-----9~9~-----------| 
|-3--3-9~9~3--3-9~9/10~10~3--3-9~9~6--6/8--8--|
|-3--3-7~7~3--3-7~7/8~~8~~3--3-7~7~6--6/8--8--|
|-3--3-----3--3-----------3--3-----6--6/8--8--|

|-12131313131313131313131313-12-13-----|
|----------------------------------12--|
|--------------------------------------|
|--------------------------------------|
|--------------------------------------|
|--------------------------------------|

|-12131313131313131313131313-12-13-14--|
|--------------------------------------|
|--------------------------------------|
|--------------------------------------|
|--------------------------------------|
|--------------------------------------|

MAKE WAY FOR MAN! MAKE WAY FOR MAN!
|--------------------------------------------------|
|--------------------------------------------------|
|--------------------------------------------------|
|----------------3-3-3-3-3-3-3-3-3333333333333333--|
|----------------3-3-3-3-3-3-3-3-3333333333333333--|
|3-3-3-3-3-3-3-3-3-3-3-3-3-3-3-3-3333333333333333--|
 . . . . . . . . . . . . . . . . ................

|--------------------|
|--------------------|
|--------------------|
|-3-333-333-333-333--|
|-3-333-333-333-333--|
|-3-333-333-333-333--|
    ... ... ... ...

|------------| |------------------------|
|------------| |------------------------|
|------------| |------------------------|
|-3-3---3-3--| |-3-3------3-3-----------|
|-3-3---3-3--| |-3-3------3-3-----------|
|-3-3---3-3--| |-3-3-3333-3-3-33333333--|
                     ....     ........

Chorus
|------------------------------|
|------------------------------|
|------------------------------|
|-3~-333~-333~-333~-333-/-666--|
|-3~-333~-333~-333~-333-/-666--|
|-3~-333~-333~-333~-333-/-666--|


Outro
|--------------------------------|
|--------------------------------|
|--------------------------------|
|--------------------------------|
|-3333-3-3333-3-3333-3-33-/-999--|
|-3333-3-3333-3-3333-3-33-/-999--|

|----------------------|
|----------------------|
|----------------------|
|-6-6-6666-6-6---3-33--|
|-8-8-8888-8-8---3-33--|
|-----....-------3-33--|


FIN!!!!

|. = palm mute  |
|x = muted not3 |
|\ = slide      |
|~ = Let it ring|
Tap to rate this tab
 
# A B C D E F G H I J K L M N O P Q R S T U V W X Y Z