Song name
# A B C D E F G H I J K L M N O P Q R S T U V W X Y Z

Set Your Goals - Like You To Me tab

Set Your Goals - Like You To Me

http://www.youtube.com/watch?v=xEOGuR5CD3Q


      Guitar 1
eb|--------------------------------------------------|
Bb|--------------------------------------------------| 
Gb|--------------------------1--2----4---------------|
Db|----2--4-----4---------2-------------2------------|
Ab|-4--------2----2---------------0------------------|
Eb|--------------------------------------------------|
      Guitar 1
eb|--------------------------------------------------|
Bb|--------------------------------------------------|
Gb|-----------------------2--1-----------------------|
Db|----2--4-----4-------------- 2-----4--------------| 0:08
Ab|-4--------2----2----------------0-----------------|
Eb|--------------------------------------------------|
       Guitar 1
eb|--------------------------------------------------|
Bb|--------------------------------------------------|
Gb|-6-6-6-6-6--4-4-4-4--9-9-9-9-9--2-2-2-2-----------|
Db|-6-6-6-6-6--4-4-4-4--9-9-9-9-9--2-2-2-2---------- | 
Ab|-4-4-4-4-4--2-2-2-2--7-7-7-7-7--0-0-0-0-----------| 
Eb|--------------------------------------------------|
       Guitar 2
eb|--------------------------------------------------|
Bb|-----------------------------------10-9-------7---|
Gb|-5----7-------4---5-------5---7----------9--------|  
Db|---4----4---4-------2-------4---4-- ---------7----| 0:13
Ab|--------------------------------------------------|
Eb|--------------------------------------------------|
       Guitar 1
eb|--------------------------------------------------|
Bb|--------------------------------------------------|
Gb|-6-6-6-6-6--4-4-4-4--------------2-2--------------|
Db|-6-6-6-6-6--4-4-4-4---2-2--x-x---2-2--------------|
Ab|-4-4-4-4-4--2-2-2-2---2-2--x-x---0-0--------------| 
Eb|----------------------0-0--x-x--------------------|
       Guitar 2               pm pm
eb|--------------------------------------------------|
Bb|-----------------------------------10-9-------7---|
Gb|-5----7-------4---5-------5---7----------9--------| 0:17 
Db|---4----4---4-------2-------4---4-- ---------7----|
Ab|--------------------------------------------------|
Eb|--------------------------------------------------|
       Guitar 1
eb|--------------------------------------------------|
Bb|--------------------------------------------------|
Gb|-6-6-6-6-6--4-4-4-4--9-9-9-9-9--2-2-2-2-----------|
Db|-6-6-6-6-6--4-4-4-4--9-9-9-9-9--2-2-2-2---------- |
Ab|-4-4-4-4-4--2-2-2-2--7-7-7-7-7--0-0-0-0-----------| 
Eb|--------------------------------------------------|
       Guitar 2
eb|--------------------------------------------------|
Bb|-----------------------------------10-9-------7---|
Gb|-5----7-------4---5-------5---7----------9--------|  
Db|---4----4---4-------2-------4---4-- ---------7----| 0:21
Ab|--------------------------------------------------| 
Eb|--------------------------------------------------|
       Guitar 1
eb|--------------------------------------------------|
Bb|--------------------------------------------------|
Gb|----------------2-2-2-2-------4-4-4-4-------------|
Db|-4-4-4-4-4-4-4--2-2-2-2--2-2--4-4-4-4------- -----|
Ab|-4-4-4-4-4-4-4--0-0-0-0--2-2--2-2-2-2-------------|
Eb|-2-2-2-2-2-2-2-----------0-0----------------------|
        Guitar 2
eb|---------------------------------------------------|
Bb|-----------------------------------10-9---7-9--7---|
Gb|-5----7-----4----5-------5---7----------9--------9-|
Db|---4----4-----4----2-------4---4-- ----------------| 0:26
Ab|---------------------------------------------------| 
Eb|---------------------------------------------------|
Tap to rate this tab
 
# A B C D E F G H I J K L M N O P Q R S T U V W X Y Z