Set Your Goals - Arrival Notes tab

Set Your Goals - Arrival Notes

http://www.youtube.com/watch?v=jduGQQO4QIE

This is basically a tab for the lead guitar. I'm too lazy to tab out
the whole rhythm parts. I may do them later. 

eb|-------------------------------------------------------|
Bb|--0------0------0-------0-----0-----0------------------| Basic rhythm part
Gb|----0------0------0-------0-----0-----0----------------| for intro
Db|-------------------------------------------------------|
Ab|--------2------3---------------------------------------| 0:00 - 0:17
Eb|-3--------------------3------3-----3-------------------|

eb|-------------------------------------------------------|
Bb|-------------------------------------------12----12--10| 0:18 - 0:24
Gb|-12-11-9--7--9----------7---12-11-9--7--9--------------|
Db|----------------9-----9--------------------------------|
Ab|-------------------------------------------------------|
Eb|-------------------------------------------------------|

eb|--------------------------------------------------|
Bb|--------------------------------------------------|
Gb|-12-11-9--7--9--------------7---------------------| 0:25 - 0:30
Db|----------------9-----9--7------------------------|
Ab|--------------------------------------------------|
Eb|--------------------------------------------------|

eb|--------------------------------------------------|
Bb|--------------/12--10-10--8----10--7--8-----------|
Gb|----9--11-12--------------------------------------| 0:31 - 0:37
Db|-12--------------------------------- -------------|
Ab|--------------------------------------------------|
Eb|--------------------------------------------------|

eb|--------------------------------------------------|
Bb|-------------/12--10-10--8----10--7--7------------|
Gb|-12-11-9------------------------------------------| 0:38 - 0:45
Db|---------12--------------------------- -----------|
Ab|--------------------------------------------------|
Eb|--------------------------------------------------|

eb|-----------------------------------------------------------------|
Bb|-----------------------------------------------------12----12--10|
Gb|-12-11-9-----12-11-9--7--9--------7---12-11-9--7--9--------------| :45-:54
Db|---------12----------------9---9---------------------------------|
Ab|-----------------------------------------------------------------|
Eb|-----------------------------------------------------------------|

                                               *= Natural Harmonic
eb|-------------------------------------------------------|
Bb|-----------------------------------------------12*-----| 0:55 - 1:08
Gb|-12-11-9--7--9---------------------------------12*-----|
Db|----------------9-----9----7---9---12--14------12*-----|
Ab|-------------------------------------------------------|
Eb|-------------------------------------------------------|
Tap to rate this tab
 
# A B C D E F G H I J K L M N O P Q R S T U V W X Y Z