Song name
# A B C D E F G H I J K L M N O P Q R S T U V W X Y Z

Set Your Goals - Certain tab

------------------------------------------------------------------------------------
	                Set Your Goals - Certain
------------------------------------------------------------------------------------

Tabbed By: Andrew Lassise
Tuning: Down 1/2 Step

Intro Guitar 1 (weird effect, I think its muted though)
eb|-----------------------------------------------------------------------------------|
Bb|-----------------------------------------------------------------------------------|
Gb|-----------------------------------------------------------------------------------|
Db|-5-5-5-5-5-5-5-5-5-5-5-5-5-5-5-5-5-5-5-5-5-5-5-5-5-5-5-5-5-5-5-5-5-5-5-5-5-5-5-5-5-|
Ab|-5-5-5-5-5-5-5-5-5-5-5-5-5-5-5-5-5-5-5-5-5-5-5-5-5-5-5-5-5-5-5-5-5-5-5-5-5-5-5-5-5-|
Eb|-3-3-3-3-3-3-3-3-3-3-3-3-3-3-3-3-3-3-3-3-3-3-3-3-3-3-3-3-3-3-3-3-3-3-3-3-3-3-3-3-3-|
pm  * * * * * * * * * * * * * * * * * * * * * * * * * * * * * * * * * * * * * * * * *

Intro Guitar 2 (Play first part 2x then second part)
eb|-------------------------------------------------|-----------13---------------|
Bb|-10-----10-----10-----10----10-----10-----10-11--|--10h11h13----13-11---------|
Gb|----10-----10-----10-----10----10-----10---------|----------------------------|
Db|-------------------------------------------------|----------------------------|
Ab|-------------------------------------------------|----------------------------|
Eb|-------------------------------------------------|----------------------------|

Guitar 1				      End With
eb|----------------------------------------|------------------------------------------|
Bb|----------------------------------------|------------------------------------------|
Gb|-2-2-2-3---3-3-3-5---5-5-5-7--7-7-7-7---|--2-2-2-3--5-5-5-5-5-5-5-5----------------|
Db|-2-2-2-3---3-3-3-5---5-5-5-7--7-7-7-7---|--2-2-2-3--5-5-5-5-5-5-5-5----------------|
Ab|-0-0-0-1---1-1-1-3---3-3-3-5--5-5-5-5---|--0-0-0-1--3-3-3-3-3-3-3-3----------------|
Eb|----------------------------------------|------------------------------------------|

Guitar 2
eb|-----------------------------------------------------------------------------------|
Bb|-----------------------------------------------------------------------------------|
Gb|-14-14-14-15---15-15-12---12-12-14---14-14-14-14-14-14-15--15-15-15-17-9-10-10-10--|
Db|-x--x--x--x----x--x--x----x--x--x----x--x--x--x--x--x--x---x--x--x--x--x-x--x--x---|
Ab|-12-12-12-13---13-13-10---10-10-12---12-12-12-12-12-12-13--13-13-13-15-7-8--8--8---|
Eb|-----------------------------------------------------------------------------------|
Guitar 2 (contd)
eb|-----------------------------------------------------------------------------------|
Bb|-----------------------------------------------------------------------------------|
Gb|-14-14-14-15---15-15-12---12-12-14---14-14-14-14-14-14/15--12--12-10-12-12-12-12---|
Db|-x--x--x--x----x--x--x----x--x--x----x--x--x--x--x--x-/x---x----x--x-x--x--x--x----|
Ab|-12-12-12-13---13-13-10---10-10-12---12-12-12-12-12-12/13--10--10-10-10-10-10-10---|
Eb|-----------------------------------------------------------------------------------|

Verse 1
eb|--------------------------------------------------------------------------------|
Bb|--------------------------------------------------------------------------------|
Gb|--2--3-3-----2--3-3----2--3-3-----2-3-3-3-5-5-5-5-5-5-5-5-----------------------|
Db|--2--3-3-----2--3-3----2--3-3-----2-3-3-3-5-5-5-5-5-5-5-5-----------------------|
Ab|--0--1-1-----0--1-1----0--1-1-----0-1-1-1-3-3-3-3-3-3-3-3-----------------------|
Eb|--------------------------------------------------------------------------------|

Prechorus Guitar 1
eb|-----------------------------------------------------------------------------------|
Bb|-----------------------------------------------------------------------------------|
Gb|-------------------3-3-3-3-3-3-3-3-----------------5-5-5-5-5-5-5-5-----------------|
Db|---5-5-5-5-5-5-5-5-3-3-3-3-3-3-3-3-3-3-3-3-3-3-3-3-5-5-5-5-5-5-5-5-----------------|
Ab|---5-5-5-5-5-5-5-5-1-1-1-1-1-1-1-1-3-3-3-3-3-3-3-3-3-3-3-3-3-3-3-3-----------------|
Eb|---3-3-3-3-3-3-3-3-----------------1-1-1-1-1-1-1-1---------------------------------|

Prechorus Guitar 2
eb|--3-3-3-3-1-1-1-1h3p1-1-3-3-3-3-1-1-1-1-0-1-0-3-3-3-3-6~-8~------------------------|
Bb|-----------------------------------------------------------------------------------|
Gb|-----------------------------------------------------------------------------------|
Db|-----------------------------------------------------------------------------------|
Ab|-----------------------------------------------------------------------------------|
Eb|-----------------------------------------------------------------------------------|

Chorus Guitar 1 (On second the chorus after playing this part just strum out these chords)
eb|-----------------------------------------------------------------------------------|
Bb|-----------------------------------------------------------------------------------|
Gb|---------------5-5--5-5-5-5--------------3-3--3-3-3-3------------------------------|
Db|--3-3---3-3----5-5--5-5-5-5---5-5--5-5---3-3--3-3-3-3------------------------------|
Ab|--3-3---3-3----3-3--3-3-3-3---5-5--5-5---1-1--1-1-1-1------------------------------|
Eb|--1-1---1-1-------------------3-3--3-3---------------------------------------------|


Verse 2
eb|-----------------------------------------------------------------------------------|
Bb|-----------------------------------------------------------------------------------|
Gb|-2-2-2-3---3-3-3-5---5-5-5-7--7-7-7-7----------------------------------------------|
Db|-2-2-2-3---3-3-3-5---5-5-5-7--7-7-7-7----------------------------------------------|
Ab|-0-0-0-1---1-1-1-3---3-3-3-5--5-5-5-5----------------------------------------------|
Eb|-----------------------------------------------------------------------------------|
PM * * * *    * * * *   * * * *  * * * *

"For where you're at" [1:42]
eb|-----------------------------------------------------------------------------------|
Bb|-----------------------------------------------------------------------------------|
Gb|-----------------------------------------------------------------------------------|
Db|-3-3-3-3---------------------------------------------------------------------------|
Ab|-3-3-3-3---------------------------------------------------------------------------|
Eb|-1-1-1-1---------------------------------------------------------------------------|

Solo Guitar 1
eb|-----------------------------------------------------------------------------------|
Bb|-----------------------------------------------------------------------------------|
Gb|-----------------3-3-3-3-3-3-3-3-----3-3-3-3-3-3-----------------------------------|
Db|-3-3-3-3-3-3-3-3-3-3-3-3-3-3-3-3-----3-3-3-3-3-3-3-3-3-3-5-5-5-5-------------------|
Ab|-3-3-3-3-3-3-3-3-1-1-1-1-1-1-1-1-0-1-1-1-1-1-1-1-3-3-3-3-5-5-5-5-------------------|
Eb|-1-1-1-1-1-1-1-1---------------------------------1-1-1-1-3-3-3-3-------------------|

Solo Guitar 2
eb|-10-8---------8------10-8---------8-10-8----------12-12-12-12-12-12-12-12-13-13-13-13----|
Bb|------10-8-10---10-8------10-8-10--------10----------------------------------------------|
Gb|-----------------------------------------------------------------------------------------|
Db|-----------------------------------------------------------------------------------------|
Ab|-----------------------------------------------------------------------------------------|
Eb|-----------------------------------------------------------------------------------------|

Solo Guitar 2 (contd)
eb|-15-15-15-15--12-13-12-10---12-13-12-10-12-10-12p10-----15-15-15-15-17-17-17-17-13/------|
Bb|----------------------------------------------------13-----------------------------------|
Gb|-----------------------------------------------------------------------------------------|
Db|-----------------------------------------------------------------------------------------|
Ab|-----------------------------------------------------------------------------------------|
Eb|-----------------------------------------------------------------------------------------|

"A good face" [2:09]
eb|--------------------------------------------------------------------------------------|
Bb|--------------------------------------------------------------------------------------|
Gb|-2-2--2-2-2--2---------------------------------5-5--5-5---------------5-5--5-5--------|
Db|-2-2--2-2-2--2-2-2--2-2-2--2-2-2-----3-3--3-3--5-5--5-5-----3-3--3-3--5-5--5-5--------|
Ab|-0-0--0-0-0--0-2-2--2-2-2--2-2-2-----3-3--3-3--3-3--3-3-----3-3--3-3--3-3--3-3--------|
Eb|---------------0-0--0-0-0--0-0-0-----1-1--1-1---------------1-1--1-1------------------|
Tap to rate this tab
# A B C D E F G H I J K L M N O P Q R S T U V W X Y Z