Song name
# A B C D E F G H I J K L M N O P Q R S T U V W X Y Z

Set Your Goals - Product Of The 80s tab

Artist: Set Your Goals
Album: Burning At Both Ends
Track: Product of the 80s
Tuning: Drop C# (C#G#C#F#A#D#)

Intro
D#|--------------------------------|--------------------------------|
A#|--------------------------------|--------------------------------|
F#|--------------------------------|--------------------------------|
C#|-------6-6-5-5-----6-6-----6-6-5|-------6-6-5-5-----6-6-----6-6-5|
G#|-6-6-6---------4-4-----4-4------|-6-6-6---------4-4-----4-4------|
C#|--------------------------------|--------------------------------|
PM  . . . . . . . . . . . . . . . .  . . . . . . . . . . . . . . . .

D#|--------------------------------|--------------------------------|
A#|--------------------------------|--------------------------------|
F#|-8-8-8-8-8-8-8-8-6-6-6-6-6-6-6-6|-8-8-8-8-8-8-8-8-6-6-6-6-6-6-6-6|
C#|-8-8-8-8-8-8-8-8-6-6-6-6-6-6-6-6|-8-8-8-8-8-8-8-8-6-6-6-6-6-6-6-6|
G#|-6-6-6-6-6-6-6-6-4-4-4-4-4-4-4-4|-6-6-6-6-6-6-6-6-4-4-4-4-4-4-4-4|
C#|--------------------------------|--------------------------------|

Verse 1
D#|--------------------------------|--------------------------------|
A#|--------------------------------|--------------------------------|
F#|--------------------------------|--------------------------------|
C#|-------6-6-5-5-----6-6-----6-6-5|-------6-6-5-5-----6-6-----6-6-5| x3
G#|-6-6-6---------4-4-----4-4------|-6-6-6---------4-4-----4-4------|
C#|--------------------------------|--------------------------------|
    . . . . . . . . . . . . . . . .  . . . . . . . . . . . . . . . .

D#|--------------------------------|--------------------------------|
A#|--------------------------------|--------------------------------|
F#|--------------------------------|-8------------------------------|
C#|-------6-6-5-5-----6-6-----6-6-5|-8------------------------------|
G#|-6-6-6---------4-4-----4-4------|-6------------------------------|
C#|--------------------------------|--------------------------------|
    . . . . . . . . . . . . . . . .

Chorus
Rhythm
D#|--------------------------------|--------------------------------|
A#|--------------------------------|--------------------------------|
F#|-----------------8-8-8-8-8-8-8-8|-----------------6-6-6-6-6-6-6-6|
C#|-6-6-6-6-6-6-6-6-8-8-8-8-8-8-8-8|-3-3-3-3-3-3-3-3-6-6-6-6-6-6-6-6| x2
G#|-6-6-6-6-6-6-6-6-6-6-6-6-6-6-6-6|-3-3-3-3-3-3-3-3-4-4-4-4-4-4-4-4|
C#|-6-6-6-6-6-6-6-6----------------|-3-3-3-3-3-3-3-3----------------|

Lead (note elongated bar)
D#|-----------------------------------------------------------------|
A#|-----------------------------------------------------------------|
F#|-13--13--12--12------------------------------------------12--12--|
C#|-----------------15--15--13--13--11--11--13--13--15--15----------| x4
G#|-----------------------------------------------------------------|
C#|-----------------------------------------------------------------|

Post-chorus
D#|--------------------------------|
A#|--------------------------------|
F#|-----------------6-6-6---6-6-6-6|
C#|-------6-6-5-5---6-6-6---6-6-6-6|
G#|-6-6-6---------4-4-4-4-4-4-4-4-4|
C#|--------------------------------|
    . . . . . . . .       .

Verse 2
D#|--------------------------------|--------------------------------|
A#|--------------------------------|--------------------------------|
F#|-8-8-8-8-8-8-8-8-6-6-6-6-6-6-6-6|-8-8-8-8-8-8-8-8-6-6-6-6-6-6-6-6|
C#|-8-8-8-8-8-8-8-8-6-6-6-6-6-6-6-6|-8-8-8-8-8-8-8-8-6-6-6-6-6-6-6-6|
G#|-6-6-6-6-6-6-6-6-4-4-4-4-4-4-4-4|-6-6-6-6-6-6-6-6-4-4-4-4-4-4-4-4|
C#|--------------------------------|--------------------------------|
    . . . . . . . . . . . . . . . .  . . . . . . . . . . . . . . . .

D#|--------------------------------|--------------------------------|
A#|--------------------------------|--------------------------------|
F#|-----8-------8-------6-------6--|-----8-------8---6-6-6-6-6-6-6-6|
C#|-----8-------8-------6-------6--|-----8-------8---6-6-6-6-6-6-6-6|
G#|-6-6-6---6-6-6---4-4-4---4-4-4--|-6-6-6---6-6-6---4-4-4-4-4-4-4-4|
C#|--------------------------------|--------------------------------|
    . .     . .     . .     . .      . .     . .

Chorus
Rhythm
D#|--------------------------------|--------------------------------|
A#|--------------------------------|--------------------------------|
F#|-----------------8-8-8-8-8-8-8-8|-----------------6-6-6-6-6-6-6-6|
C#|-6-6-6-6-6-6-6-6-8-8-8-8-8-8-8-8|-3-3-3-3-3-3-3-3-6-6-6-6-6-6-6-6| x2
G#|-6-6-6-6-6-6-6-6-6-6-6-6-6-6-6-6|-3-3-3-3-3-3-3-3-4-4-4-4-4-4-4-4|
C#|-6-6-6-6-6-6-6-6----------------|-3-3-3-3-3-3-3-3----------------|

D#|--------------------------------|--------------------------------|
A#|--------------------------------|--------------------------------|
F#|-----------------8-8-8-8-8-8-8-8|-10101010101010106-6-6-6-6-6-6-6|
C#|-6-6-6-6-6-6-6-6-8-8-8-8-8-8-8-8|-10101010101010106-6-6-6-6-6-6-6|
G#|-6-6-6-6-6-6-6-6-6-6-6-6-6-6-6-6|-8-8-8-8-8-8-8-8-4-4-4-4-4-4-4-4|
C#|-6-6-6-6-6-6-6-6----------------|--------------------------------|

D#|--------------------------------|--------------------------------|
A#|--------------------------------|--------------------------------|
F#|-----------------8-8-8-8-8-8-8-8|-----------------6-6-6-6-6-6-6-6|
C#|-6-6-6-6-6-6-6-6-8-8-8-8-8-8-8-8|-3-3-3-3-3-3-3-3-6-6-6-6-6-6-6-6|
G#|-6-6-6-6-6-6-6-6-6-6-6-6-6-6-6-6|-3-3-3-3-3-3-3-3-4-4-4-4-4-4-4-4|
C#|-6-6-6-6-6-6-6-6----------------|-3-3-3-3-3-3-3-3----------------|

Lead
D#|-----------------------------------------------------------------|
A#|-----------------------------------------------------------------|
F#|-13--13--12--12------------------------------------------12--12--|
C#|-----------------15--15--13--13--11--11--13--13--15--15----------| x4
G#|-----------------------------------------------------------------|
C#|-----------------------------------------------------------------|

D#|-----------------------------------------------------------------|
A#|-----------------------------------------------------------------|
F#|-13--13--13--13--13--13--13--13--15--15--15--15--15--15--15--15--|
C#|-----------------------------------------------------------------|
G#|-----------------------------------------------------------------|
C#|-----------------------------------------------------------------|

D#|----------------------------------------16-----------------------|
A#|-13--13--13--13--13--13--13--13--14---------14--13--14--13-------|
F#|------------------------------------------------------------15---|
C#|-----------------------------------------------------------------|
G#|-----------------------------------------------------------------|
C#|-----------------------------------------------------------------|

Bridge
D#|--------------------------------|--------------------------------|
A#|--------------------------------|--------------------------------|
F#|-----------6---6---6-6-6-6-6-6--|--------------------------------|
C#|-8---8-8-8-6---6---6-6-6-6-6-6-6|---6-6-6-6---6---6-6-6-6-6-6-6--| x2
G#|-8---8-8-8-4---4---4-4-4-4-4-4-6|---6-6-6-6---6---6-6-6-6-6-6-6--|
C#|-8---8-8-8---------------------6|---6-6-6-6---6---6-6-6-6-6-6-6--|

D#|--------------------------------|--------------------------------|
A#|--------------------------------|--------------------------------|
F#|--------------------------------|--------------------------------|
C#|--------------------------------|--------------------------------|
G#|----------/4---4---4-4-4-4-4-4--|--------------------------------|
C#|/8---8-8-8--------------------/6|---6-6-6-6--/6---6-6-6-6-6-6-6--|

D#|--------------------------------|
A#|--------------------------------|
F#|--------------------------------|
C#|--------------------------------|
G#|----------/4---4---4-4-4-4-4-4--|
C#|/8---8-8-8----------------------|

Solo
Rhythm
D#|--------------------------------|--------------------------------|
A#|--------------------------------|--------------------------------|
F#|-----------8-8-8---8-8-8-8-8-10-|-101010--106---6-6-6-6-6-6-6-4--|
C#|-6-6-6---6-8-8-8---8-8-8-8-8-10-|-101010--106---6-6-6-6-6-6-6-6--|
G#|-6-6-6---6-6-6-6---6-6-6-6-6-8--|-8-8-8---8-4---4-4-4-4-4-4-4-4--|
C#|-6-6-6---6----------------------|--------------------------------|

D#|--------------------------------|--------------------------------|
A#|--------------------------------|--------------------------------|
F#|-----------8-8-8---8-8-8-8-8----|-----------6---6-6-6-6-6-6-6-4--|
C#|-6-6-6---6-8-8-8---8-8-8-8-8-3--|-3-3-3---3-6---6-6-6-6-6-6-6-6--|
G#|-6-6-6---6-6-6-6---6-6-6-6-6-3--|-3-3-3---3-4---4-4-4-4-4-4-4-4--|
C#|-6-6-6---6-------------------3--|-3-3-3---3----------------------|

Lead
D#|-----------------------------------------------------------------|
A#|-----16----------------------------------------------------------|
F#|---------13---------13/-15--15---------13/-15--15-----13--15-----|
C#|-13-------------13-----------------13----------------------------|
G#|-----------------------------------------------------------------|
C#|-----------------------------------------------------------------|

D#|-----------------------------------------------------------------|
A#|----13-------------14-----13----------------------------16-------|
F#|15------13-----13-------------15--13--12-----13-------------13---|
C#|----------------------------------------------------13-----------|
G#|-----------------------------------------------------------------|
C#|-----------------------------------------------------------------|

D#|-----------------------------------------------------------------|
A#|-------------------------------------------13-----13--13--13--13-|
F#|------13/-15--15--------13/-15--15-----13------------------------|
C#|--13-----------------13------------------------------------------|
G#|-----------------------------------------------------------------|
C#|-----------------------------------------------------------------|

D#|------------16-------------------------|
A#|-13--14---------14--13--14--13---------|
F#|--------------------------------15-----|
C#|---------------------------------------|
G#|---------------------------------------|
C#|---------------------------------------|

Chorus
Rhythm
D#|--------------------------------|--------------------------------|
A#|--------------------------------|--------------------------------|
F#|-----------------8-8-8-8-8-8-8-8|-----------------6-6-6-6-6-6-6-6|
C#|-6-6-6-6-6-6-6-6-8-8-8-8-8-8-8-8|-3-3-3-3-3-3-3-3-6-6-6-6-6-6-6-6| x2
G#|-6-6-6-6-6-6-6-6-6-6-6-6-6-6-6-6|-3-3-3-3-3-3-3-3-4-4-4-4-4-4-4-4|
C#|-6-6-6-6-6-6-6-6----------------|-3-3-3-3-3-3-3-3----------------|

D#|--------------------------------|--------------------------------|
A#|--------------------------------|--------------------------------|
F#|-----------------8-8-8-8-8-8-8-8|-10101010101010106-6-6-6-6-6-6-6|
C#|-6-6-6-6-6-6-6-6-8-8-8-8-8-8-8-8|-10101010101010106-6-6-6-6-6-6-6|
G#|-6-6-6-6-6-6-6-6-6-6-6-6-6-6-6-6|-8-8-8-8-8-8-8-8-4-4-4-4-4-4-4-4|
C#|-6-6-6-6-6-6-6-6----------------|--------------------------------|

D#|--------------------------------|--------------------------------|
A#|--------------------------------|--------------------------------|
F#|-----------------8-8-8-8-8-8-8-8|-----------------6-6-6-6-6-6-6-6|
C#|-6-6-6-6-6-6-6-6-8-8-8-8-8-8-8-8|-3-3-3-3-3-3-3-3-6-6-6-6-6-6-6-6|
G#|-6-6-6-6-6-6-6-6-6-6-6-6-6-6-6-6|-3-3-3-3-3-3-3-3-4-4-4-4-4-4-4-4|
C#|-6-6-6-6-6-6-6-6----------------|-3-3-3-3-3-3-3-3----------------|

Lead
D#|-----------------------------------------------------------------|
A#|-----------------------------------------------------------------|
F#|-13--13--12--12------------------------------------------12--12--|
C#|-----------------15--15--13--13--11--11--13--13--15--15----------| x4
G#|-----------------------------------------------------------------|
C#|-----------------------------------------------------------------|

D#|-----------------------------------------------------------------|
A#|-----------------------------------------------------------------|
F#|-13--13--13--13--13--13--13--13--15--15--15--15--15--15--15--15--|
C#|-----------------------------------------------------------------|
G#|-----------------------------------------------------------------|
C#|-----------------------------------------------------------------|

D#|----------------------------------------16-----------------------|
A#|-13--13--13--13--13--13--13--13--14---------14--13--14--13-------|
F#|------------------------------------------------------------15---|
C#|-----------------------------------------------------------------|
G#|-----------------------------------------------------------------|
C#|-----------------------------------------------------------------|

End on
D#|--------------------------------|
A#|--------------------------------|
F#|-----------------6-6-6---6------|
C#|-------6-6-5-5---6-6-6---6------|
G#|-6-6-6---------4-4-4-4-4-4------|
C#|--------------------------------|
    . . . . . . . .       .
Tap to rate this tab
 
# A B C D E F G H I J K L M N O P Q R S T U V W X Y Z