Song name
# A B C D E F G H I J K L M N O P Q R S T U V W X Y Z

Set Your Goals - Goonies Never Say Die tab

----------------------------------------------------------------------------
	                  Goonies Never Say Die - Set Your Goals
----------------------------------------------------------------------------

Tabbed by: Michael Piscitelli
Email:basketballpro92@comcast.net
Tuning:Drop D

E|-------------------------------------------------------------------------|
B|-------------------------------------------------------------------------|
G|-------------------------------------------------------------------------|
d|-1~---1-1-1~--------------------1111--1/33/5/6/5-------------------------|
A|-1~---1-1-1~--///////////////---1111--1/33/5/6/5-(x3)--------------------|
D|-1~---1-1-1~--////-PICK SLIDE---1111--1/33/5/6/5-------------------------|

E|-------------------------------------------------------------------------|
B|-------------------------------------------------------------------------|
G|-------------------------------------------------------------------------|
d|-3-5-6--66----1111--1/33/5/6/5-------3-5-66---1111--1/33/5/6/5-----------|
A|-3-5-6--66----1111--1/33/5/6/5-(x3)--3-5-66---1111--1/33/5/6/5-(x3)------|
D|-3-5-6--66----1111--1/33/5/6/5-------3-5-66---1111--1/33/5/6/5-----------|

e|-------------------------------------------------------------------------|
B|-------------------------------------------------------------------------|
G|-------------------------------------------------------------------------|
d|-3-5-6--1~---------------------------------------------------------------|
A|-3-5-6--1~---------------------------------------------------------------|
D|-3-5-6--1~---------------------------------------------------------------|

Tap to rate this tab
# A B C D E F G H I J K L M N O P Q R S T U V W X Y Z