Guitaretab - guitar tabs
Song name
# A B C D E F G H I J K L M N O P Q R S T U V W X Y Z

Set Your Goals - This Very Moment tab

probably not completely right, but close enough!

|------------------------------------------------------|
|------------------------------------------------------|
|------------------------------------------------------|
|-11-11-11-7-9-2-2-2-7-6-2-2-2-7-9-2-2-2-7-6-9-9-9-9-9-|
|-11-11-11-7-9-2-2-2-7-6-2-2-2-7-9-2-2-2-7-6-9-9-9-9-9-|
|--9--9--9-5-7-0-0-0-5-4-0-0-0-5-7-0-0-0-5-4-7-7-7-7-7-|

|-----------------------------------------| |------|
|-----------------------------------------| |------|
|-----------------------------------------| |------|
|-2-2-2-7-6-2-2-2-7-9-2-2-2-7-6-9-9-9-9-9-| |-6-9^-|
|-2-2-2-7-6-2-2-2-7-9-2-2-2-7-6-9-9-9-9-9-| |--7---|
|-0-0-0-5-4-0-0-0-5-7-0-0-0-5-4-7-7-7-7-7-| |------|
"i value..."

|-----------------------------------------|
|-----------------------------------------|
|-----------------------------------------|
|-2-2-2-7-6-2-2-2-7-9-2-2-2-7-6-9-9-9-9-9-|
|-2-2-2-7-6-2-2-2-7-9-2-2-2-7-6-9-9-9-9-9-|
|-0-0-0-5-4-0-0-0-5-7-0-0-0-5-4-7-7-7-7-7-| (x2)
"i know i'm not.."/"the feelings..."

|----------------------------------------|
|----------------------------------------|
|------------------------------9----9----|
|-11----7----2----7-11----7----9-x8-9----|
|-11-x8-7-x8-2-x5-7-11-x8-7-x8-7----6-x8-|
|--9----5----0----5--9----5--------------|
"and you..."

|--------------------------|
|--------------------------|
|--------------------------|
|-11----7----2-----11----7-|
|-11-x8-7-x8-2-x5--11-x8-7-|
|--9----5----0------9----5-|
"and i..."

|-----------------------------------------|
|-----------------------------------------|
|-----------------------------------------|
|-2-2-2-7-6-2-2-2-7-9-2-2-2-7-6-9-9-9-9-9-|
|-2-2-2-7-6-2-2-2-7-9-2-2-2-7-6-9-9-9-9-9-|
|-0-0-0-5-4-0-0-0-5-7-0-0-0-5-4-7-7-7-7-7-| (x2)
"i know i'm not.."/"the hanging out..."

|-----------------------------------------|
|-----------------------------------------|
|-----------------------------------------|
|-2-2-2-7-6-2-2-2-7-9-2-2-2-7-6-9-9-9-9-9-|
|-2-2-2-7-6-2-2-2-7-9-2-2-2-7-6-9-9-9-9-9-|
|-0-0-0-5-4-0-0-0-5-7-0-0-0-5-4-7-7-7-7-7-| (x2)
^ this plays in the background during the ones below

|-----------------------------------------|
|-5-5-2-0-0-5-5-7-9-0-5-5-2-0-0-2-2-2-4-4-|
|-----------------------------------------|
|-----------------------------------------|
|-----------------------------------------|
|-----------------------------------------|
"i just hope..."
[ Tab from: http://www.guitaretab.com/s/set-your-goals/77303.html ]
|---------------------------------------|
|-5-5-2-0-0-5-5-7-9-9-10-10-9-7-?-?-?-?-|
|---------------------------------------|
|---------------------------------------|
|---------------------------------------|
|---------------------------------------|
"to make..."

|----------------------------------------|
|----------------------------------------|
|------------------------------9----9----|
|-11----7----2----7-11----7----9-x8-9----|
|-11-x8-7-x8-2-x5-7-11-x8-7-x8-7----6-x8-|
|--9----5----0----5--9----5--------------|
"you know it's true"

|---------------------------|
|---------------------------|
|---------------------------|
|-11----7----2----7-11----7-|
|-11-x8-7-x8-2-x5-7-11-x8-7-|
|--9----5----0----5--9----5-|
"and we..."

|------------------------|
|------------------------|
|------------------------|
|-222222222222222--------|
|-222222222222222-x???---|
|-000000000000000--------| (there's a pick slide in there too!)
"you have me waiting..."

|---------------------------|
|---------------------------|
|---------------------------|
|-11-11-9(11)-7-7-7--6h7-6p-|
|-11-11-9(11)-7-7-7---------|
|--9--9-7(-9)5-5-5---------|
"we'll have nothing..."

|--------------------------------------------|
|--------------------------------------------|
|--------------------------------------------|
|-2-22222222222222-11-11-9(11)-7-7-7--6(7)/6-|
|-2-22222222222222-11-11-9(11)-7-7-7--6(7)/6-|
|-0-00000000000000--9--9-7(-9)5-5-5--4(5)/4-|

|-------------------------------------------|
|-------------------------------------------|
|-------------------------------------------|
|-2-22222222222222-11-11-9/11-7-7-7--6(7)/6-|
|-2-22222222222222-11-11-9/11-7-7-7--6(7)/6-|
|-0-00000000000000--9--9-7/-95-5-5--4(5)/4-|
(other guitar plays higher notes at the end)

|------------------|
|------------------|
|------------------|
|-2-----11----7----|
|-2-x16-11-x8-7-x8-|
|-0------9----5----| (x2)
"time is running on..."

|------------------------|
|------------------------|
|------------------------|
|-2-22222-11-11-9-6(7)/6-|
|-2-22222-11-11-9-6(7)/6-|
|-0-00000--9--9-7-4(5)/4-|
"this very moment..."

|-------------------------------------------------|
|-------------------------------------------------|
|-------------------------------------------------|
|-2-22222222222222-11-11-9(11)-7-7-7--6(7)/6-6h7-6|
|-2-22222222222222-11-11-9(11)-7-7-7--6(7)/6------|
|-0-00000000000000--9--9-7(-9)5-5-5--4(5)/4------|
"this very moment..."
Related for This Very Moment tab