Song name
# A B C D E F G H I J K L M N O P Q R S T U V W X Y Z

Seth Lakeman - The Charmer tab

The Charmer - Seth Lakeman

I Know This Is'nt Right But I wanted To Tab Something That sounded Good On One Guitar So 
You Go.

(Capo 3rd Fret)

Try to listen For The Rhythm


Intro

E[---------|----------------|---------|---------------|
B[---------|0---0-0-0--0-0-0|---------|0----X-X-0-----|
G[-----0---|2---2-2-2--2-2-2|-----0---|2----X-X-X-----|
D[-2-2-0---|2---2-2-2--2-2-2|-2-2-0---|2----X-X-2-----|
A[-2-2-x---|0---0-0-0--0-0-0|-2-2-X---|0----X-X-2----2|
E[-0-0-3---|----------------|-0-0-3---|-------3-0--0-0|

E|---------|----------------|---------|----------------|
B|---------|0---0-0-0--0-0-0|---------|0---------------|
G|-----0---|2---2-2-2--2-2-2|-----0---|2---X-X-0-0-0-0-|
D|-2-2-0---|2---2-2-2--2-2-2|-2-2-0---|2---X-X-0-0-0-0-|
A|-2-2-X---|0---0-0-0--0-0-0|-2-2-X---|0---X-X-X-X-X-X-|
E|-0-2-3---|----------------|-0-0-3---|--------3-3-3-3-|

E[---------|----------------|---------|---------------|
B[---------|0---0-0-0--0-0-0|---------|0----X-X-0-----|
G[-----0---|2---2-2-2--2-2-2|-----0---|2----X-X-X-----|
D[-2-2-0---|2---2-2-2--2-2-2|-2-2-0---|2----X-X-2-----|
A[-2-2-x---|0---0-0-0--0-0-0|-2-2-X---|0----X-X-2----2|
E[-0-0-3---|----------------|-0-0-3---|-------3-0--0-0|

E[---------|----------------|---------|----------------|
B[---------|0---0-0-0--0-0-0|---------|0---0-0-0--0-0-0|
G[-----0---|2---2-2-2--2-2-2|-----0---|2---2-2-2--2-2-2|
D[-2-2-0---|2---2-2-2--2-2-2|-2-2-0---|2---2-2-2--2-2-2|
A[-2-2-X---|0---0-0-0--0-0-0|-2-2-X---|0---0-0-0--0-0-0|
E[-0-0-3---|----------------|-0-0-3---|----------------|

Verse

E[-----------------|
B[-----------------|
G[-----------------|
D[XXXXXXXXXXXXXXXXX|
A[XX17XX17XX17X1717|
E[XX15XX15XX15X1515|  Continue Throughout verse

Chorus

E[---------|----------------|
B[---------|0---0-0-0--0-0-0|
G[-----0---|2---2-2-2--2-2-2|
D[-2-2-0---|2---2-2-2--2-2-2|  X4
A[-2-2-X---|0---0-0-0--0-0-0|
E[-0-0-3---|----------------|

Verse

Chorus

unsure about the violin solo I just play some rhythmic stuff with Em And G
Tap to rate this tab
# A B C D E F G H I J K L M N O P Q R S T U V W X Y Z