Song name
# A B C D E F G H I J K L M N O P Q R S T U V W X Y Z

Seth Macfarlane - Good Morning Usa tab

American Dad Theme - Good Morning USA
Tabbed by victorvictor

couldn't find any that wasn't guitar pro so i uploaded myself

e|----------------------------------|
b|--------------------8-10-11-8-----|
g|----------7---7--10-----------10--|
d|-7/8-7--8---8---------------------|
a|----------------------------------|
e|----------------------------------|
    
e|-------------------------------10-8-------8-------------------------|
b|------------8-10-11~--11-10-11------11-10---11-10-8--11--10-8-------|
g|-9/10--7-10---------------------------------------------------10~---|
d|--------------------------------------------------------------------|
a|--------------------------------------------------------------------|
e|--------------------------------------------------------------------|

e|---------------------------------|
b|---------8-10-10--8----8-10-11---|
g|-10-7-10------------10-----------|
d|---------------------------------|
a|---------------------------------|
e|---------------------------------|

e|---------------------10-8-------------8-|
b|-11-10-8----8-10-11-------11-10-11-13---|
g|---------10-----------------------------|
d|----------------------------------------|
a|----------------------------------------|
e|----------------------------------------|

e|-------------------|
g|-------------------|
b|-------------------|
d|---0-2---3-5-6-7~--|
a|-3-----3-----------|
e|-------------------|

e|----------------------------------------------------|
b|----------------------------------------------------|
g|---/7-7-6-7-8~-----5-5-7-7--------------------------|
d|-5---------------5---------8-5-6-7-8-5-6-7-8-7-6-5~-|
a|----------------------------------------------------|
e|----------------------------------------------------|

e|-----------------------|
b|-----------------------|
g|------5--5---7--7---3--|
d|--5---5--5---7--7---3--|
a|------3--3---5--5---1--|
e|-----------------------|
Tap to rate this tab
 
# A B C D E F G H I J K L M N O P Q R S T U V W X Y Z