Song name
# A B C D E F G H I J K L M N O P Q R S T U V W X Y Z

Seu Jorge - Life On Mars tab

This was the closest I could get by ear, but this sounds pretty damn close.  This is the 
first verse and the the first chorus...I figure that it'll give others a template to 
work off of if they'd like to finish it.

Tuning: Standard (EADBGE)
e|----------------------------------------3-------2---2-3---5-----------3----|
B|---------1-------------1--------------1------------------------------------|
G|---------2-----------2-2----2-------2--------------------------------------|
D|-----3-------3-----2------------1---------------0-----0---------------5----|
A|-3-------------------------------------------------------------------------|
E|-1---------------0--------------------------------------------3------------|

e|-------------1-----------0-------------------------------------------------|
B|-------1---------------1-----1---1-----------------------------------------|
G|---------------------0---------------------0---0---------------------------|
D|-------------------2---------------------2---2-----------------------------|
A|-----------------3-------3-------3-------3---------------------------------|
E|-1-------------------------------------------------------------------------|

e|---------1-----------------1-------------3-------2-------3-----5-----------|
B|-----1-----------------1-----1----------1------------------3---------------|
G|-2-----2---2---0-----2---------2-------2---------------------2---2---------|
D|---3---------3-----2-------------1---------------0-----0-------------------|
A|---------------------------------------------------------------------------|
E|-1---------------0---------------------------------------------------------|

e|-------3---------------------1---------------0---0-------------------------|
B|-----3-----------------1-----------------1---------------1-----------------|
G|---------------------3-----------------0-------------------0---0-----------|
D|---5-------5-------3-----------------2-----------------------2-------------|
A|---------------------------------3-------3-------3-------------------------|
E|-3-------3---3---1---------------------------------------------------------|

e|---------------------------------------------------------------------------|
B|---------4-------------5-------------------9--------------9----------------|
G|-------5-----5-------5-------5----------10-----10-------8-----8------------|
D|-----6-------------6-----------------10---------------8---------8----------|
A|-6---------------7---------------8------------------9-------------9--------|
E|---------------------------------------------------------------------------|

e|---------------------------------------------------------7---7-------------|
B|-------------------------4-----------------6-------------------7-----------|
G|-----------8-----------5-----5-----------6-----6---------------------------|
D|---------11----------4---------4-------8---------8-----9---------9---------|
A|-------11------------------------------------------------------------------|
E|-9-----------------5-------------5-6---------------7-----------------------|

e|-6-------6-----------6---------------------3-------------------------------|
B|-------------6---6-------6-------------3---------------3-------------------|
G|-7-------7---7---8-----------------------------------2-------2-------------|
D|-8---------------------------8-------5-------5-----4-----------------------|
A|-----------------------------------5-----------5---------------------------|
E|-6---------------6---------------3---------------2-------------------------|

e|---------1---------------------------------------------------6-------------|
B|---------1---------------1---------------4---------------7-----------------|
G|-2-----------2---1---------1------------5----------------8-----------------|
D|-3---------------3-----------3---------------------------8-----------------|
A|-------------------------------3-3-----3-----3-5-6-------------------------|
E|-1---------------1---------------------------------------------------------|
Tap to rate this tab
# A B C D E F G H I J K L M N O P Q R S T U V W X Y Z