Song name
# A B C D E F G H I J K L M N O P Q R S T U V W X Y Z

Seven Against Thebes - What Scott Baio Would Do tab

---------------------------------------------------------------------
       What Scott Baio Would Do - Seven Against Thebes
---------------------------------------------------------------------

Verse
D#|-----------------------------------------------------------|
A#|-----------------------------------------------------------|
F#|-----------------------------------------------------------|
C#|--0--5-5---10-10--10-10------------------------------------|
G#|--0--5-5---10-10--10-10----X 2-----------------------------|
C#|--0--5-5---10-10--10-10------------------------------------|
    Those fake ideals that you...

D#|-----------------------------------------------------------|
A#|-----------------------------------------------------------|
F#|--10-------------------------------------------------------|
C#|--8-X 32---------------------------------------------------|
G#|--8--------------------------------------------------------|
C#|--8--------------------------------------------------------|
        If that's what you hiding...

D#|-----------------------------------------------------------|
A#|-----------------------------------------------------------|
F#|-----------------------------------------------------------|
C#|--0--------------------------0-----------------------------|
G#|--0--------------------------------------------------------|
C#|--0--------------------------------------------------------|

Verse

Breakdown
D#|-----------------------------------------------------------|
A#|-----------------------------------------------------------|
F#|-----------------------------------------------------------|
C#|--8-8-8--8--8-8-8--8----5-5-5--5--5-5-5--5-----------------|
G#|--8-8-8--8--8-8-8--8----5-5-5--5--5-5-5--5-----------------|
C#|--8-8-8--8--8-8-8--8----5-5-5--5--5-5-5--5-----------------|
P.M  . . .  .  . . .  .    . . .  .  . . .  .

D#|-----------------------------------------------------------|
A#|-----------------------------------------------------------|
F#|-----------------------------------------------------------|
C#|--8-8-8--8--8-8-8--8----0-0-0--0--0-0-0--0-----------------|
G#|--8-8-8--8--8-8-8--8----0-0-0--0--0-0-0--0-----------------|
C#|--8-8-8--8--8-8-8--8----0-0-0--0--0-0-0--0-----------------|
P.M  . . .  .  . . .  .    . . .  .  . . .  .

D#|-----------------------------------------------------------|
A#|-----------------------------------------------------------|
F#|-----------------------------------------------------------|
C#|--8-8-8--8--8-8-8--8----5-5-5--5--5-5-5--5-----------------|
G#|--8-8-8--8--8-8-8--8----5-5-5--5--5-5-5--5-----------------|
C#|--8-8-8--8--8-8-8--8----5-5-5--5--5-5-5--5-----------------|
P.M  . . .  .  . . .  .    . . .  .  . . .  .

D#|-----------------------------------------------------------|
A#|-----------------------------------------------------------|
F#|-----------------------------------------------------------|
C#|--8-8-8--8--8-8-8--8---------------------------------------|
G#|--8-8-8--8--8-8-8--8---------------------------------------|
C#|--8-8-8--8--8-8-8--8---------------------------------------|
P.M  . . .  .  . . .  .



Ending
D#|-----------------------------------------------------------|
A#|-----------------------------------------------------------|
F#|-----------------------------------------------------------|
C#|--7-7--7-7---7-x-x-x-7----8-8--8-8---8-x-x-x-8-------------|
G#|--7-7--7-7---7-x-x-x-7----8-8--8-8---8-x-x-x-8-------------|
C#|--7-7--7-7---7-x-x-x-7----8-8--8-8---8-x-x-x-8-------------|
        Tell me it's not what you told me...

D#|-----------------------------------------------------------|
A#|-----------------------------------------------------------|
F#|-----------------------------------------------------------|
C#|--0-0--0-0---0-x-x-x-0-----10-10--10-10---10-x-x-x-10------|
G#|--0-0--0-0---0-x-x-x-0-----10-10--10-10---10-x-x-x-10------|
C#|--0-0--0-0---0-x-x-x-0-----10-10--10-10---10-x-x-x-10------|


D#|-----------------------------------------------------------|
A#|-----------------------------------------------------------|
F#|-------------------------------------------------10--------|
C#|--7-7--7-7---7-x-x-x-7----8-8--8-8---8-x-x-x-8---10--------|
G#|--7-7--7-7---7-x-x-x-7----8-8--8-8---8-x-x-x-8---0---------|
C#|--7-7--7-7---7-x-x-x-7----8-8--8-8---8-x-x-x-8---0---------|

Tap to rate this tab
# A B C D E F G H I J K L M N O P Q R S T U V W X Y Z